top separator

Home

Forum

What's New

Submit a Tab

FAQ

Links

Contact Us

Link to Us

MetalTabs.com logo

Bands

0-9

A

B

C

D

E

F

G

H

I

J

K

L

M

N

O

P

Q

R

S

T

U

V

W

X

Y

Z

Search

What

Where
 

Darkthrone - "Snowfall" Guitar Tab

Plain Text Version
More Darkthrone Tabs

Hits: 6201
Rated: 4.58 out of 5 (12 votes)
Updated: 2004-12-14 17:15:27

 

By:

[Nocturno_Culto]

sendpm.gif

email.gif

Important note
This tab is available online because we obtained explicit permission from Darkthrone or their label.


#----------------------------------PLEASE NOTE---------------------------------#
#This file is the author's own work and represents their interpretation of the #
#song. You may only use this file for private study, scholarship, or research. #
#Unless specified otherwise, this is NOT an official tab from the band members.#
#------------------------------------------------------------------------------#

  Visit MetalTabs.com for more metal tablature
  
Band:  Darkthrone
Album: Promo tape (1988) / Preparing for War (2000)
Song:  Snowfall
Copyright (c) 1988

Transcribed By: [Nocturno Culto]
Email: Slash_6661@hotmail.com


.  - palm mute           /  - slide up to
\  - slide down to       ~  - vibrato
h  - hammer on           b  - Bend
p  - pull off            Suffixes for bend
t  - tap                 f  - full bend    h - half bend
ph - pinched harmonic    q  - quarter bend t - tap bend
*  - see comment         ^  - Hold bend    r release bend
x  - Stuccatto           ~  - vibrato bend
,  - slight palm mute    () - ghost note, sustained note
"  - tremolo note        <> - Trill

Tunning E A D G B E

IMPORTANT!!!--> Riffs that no finish in "|" continues below



Darkthone - Snowfall

e:---------------------|
b:---------------------|
g:---------------------|
d:-7----6----3--4--2---|x2
a:-7----6----3--4--2---|
e:-5----4----1--2--0---|

e:----------------------------------------------------|
b:----------------------------------------------------|
g:----------------------------------------------------|
d:-7------7------6------6------3------4------2------2-|x2
a:-7------7------6------6------3------4------2------2-|
e:-5--5-5-5--5-5-4--4-4-4--4-4-1--1-1-2--2-2-0--0-0-0-|
      . .    . .    . .    . .    . .    . .    . .
e:----------------------------------|
b:----------------------------------|
g:----------------------------------|
d:----------------------------------|x2
a:----------------------------------|
e:-55555555444444441111222200000000-|

e:-----------------------------|
b:-----------------------------|
g:-----------------------------|
d:-----7------6----------------|x2
a:-7-7-7--6-6-6--3-3-3-4-2-2-2-|
e:-5-5-5--4-4-4--1-1-1-2-0-0-0-|
   . .    . .    . . . . . . .

e:-----------------------------------------------------------|
b:-----------------------------------------------------------|
g:-----------------------------------------------------------|
d:-3-3--3-3-3--3-3-3--3-4-7-7--4-4--4-4-4--4-4-4--4-2--2--2--|
a:-3-3--3-3-3--3-3-3--3-4-7-7--4-4--4-4-4--4-4-4--4-2--2--2--|x4
e:-1-1--1-1-1--1-1-1--1-2-5-5--2-2--2-2-2--2-2-2--2-0--0--0--|
						    .  .  .
e:--------------------------------------------------------------------
b:--------------------------------------------------------------------
g:--------------------------------------------------------------------
d:-7-7--7-7-7--7-5-5--5-4-4--4-6-6--6-6-6--6-6-9--9--9--7-7--7-7-7--7-
a:-7-7--7-7-7--7-3-3--3-2-2--2-6-6--6-6-6--6-6-9--9--9--7-7--7-7-7--7-
e:-5-5--5-5-5--5---------------4-4--4-4-4--4-4-7--7--7--5-5--5-5-5--5-

e:--------------------------------------|
b:--------------------------------------|
g:--------------------------------------|
d:-------------6-6--6-6-6--6-9-9--9-9-9-|x2
a:-6--5--------6-6--6-6-6--6-9-9--9-9-9-|
e:-------6--5--4-4--4-4-4--4-7-7--7-7-7-|

e:---------------------------------------------------------------|
b:---------------------------------------------------------------|
g:---------------------------------------------------------------|
d:-2-2-2-2-2-2-2-2-2-2-2-2-2-2-2-2-2-2-2-2-2-2-2-2-2-2-2-2-2-2-2-|
a:-2-2-2-2-2-2-2-2-2-2-2-2-2-2-2-2-2-2-2-2-2-2-2-2-2-2-2-2-2-2-2-|
e:-0-0-0-0-0-0-0-0-0-0-0-0-0-0-0-0-0-0-0-0-0-0-0-0-0-0-0-0-0-0-0-|

//Guitar 1
//
//e:---------------------------------------------------------------|
//b:---------------------------------------------------------------|
//g:---------------------------------------------------------------|
//d:-2-2-2-2-2-2-2-2-2-2-2-2-2-2-2-2-2-2-2-2-2-2-2-2-2-2-2-2-2-2-2-|
//a:-2-2-2-2-2-2-2-2-2-2-2-2-2-2-2-2-2-2-2-2-2-2-2-2-2-2-2-2-2-2-2-|
//e:-0-0-0-0-0-0-0-0-0-0-0-0-0-0-0-0-0-0-0-0-0-0-0-0-0-0-0-0-0-0-0-|
//   ..............................................................
//Guitar 2
//
//e:---------------------------------------------------------------|
//b:---------------------------------------------------------------|
//g:-4---------------3---------------------------------------------|
//d:-4---------------3------------2--------5--------3------------2-|
//a:-2---------------1------------2--------5--------3------------2-|
//e:--------------------------3-1-0--------3--------1--------3-1-0-|
//                            . .                            . .

Both Guitars
e:------------------------------------------------------------------------------
b:------------------------------------------------------------------------------
g:-4---------------3------------------------------------------------------------
d:-4---------------3------------2-2-2-2-2-2-2-2-5--------3------------2-------2-
a:-2---------------1------------2-2-2-2-2-2-2-2-5--------3------------2-------2-
e:--------------------------3-2-0-0-0-0-0-0-0-0-3--------1--------3-2-0---3-2-0-
                            . .................                   . .     . .
e:-------|
b:-------|
g:-------|
d:-----2-|
a:-----2-|
e:-3-2-0-|
   . .
e:-----------------------------------------------------------|
b:-----------------------------------------------------------|
g:-----------------------------------------------------------|
d:-----------------------------------------------------------|
a:-----2-----2-----2-----2-3-3-3-----2-----2-----------------|
e:-0-0-0-0-0-0-0-0-0-0-0-0-1-1-1-0-0-0-0-0-0-0-0-5--4--1--3--|
   .............................................

e:---------------------------------------------------------|
b:---------------------------------------------------------|
g:---------------------------------------------------------|
d:----------2-------------3-------------4-------------5----|x2
a:-3--2--0--2----3--2--0--3----3--2--0--4----3--2--3--5----|
e:----------0-------------1-------------2-------------3----|

//Guitar 1
//
//e:-----------------------------------------------------------------|
//b:-----------------------------------------------------------------|
//g:-----------------------------------------------------------------|
//d:----------2---------------3---------------4---------------5------|x2
//a:-3--2--0--2--2-2-3--2--0--3--3-3-3--2--0--4--4-4-3--2--3--5--5-5-|
//e:----------0--0-0----------1--1-1----------2--2-2----------3--3-3-|
//               . .             . .             . .
//
//Guitar 2
//
//e:-----------------------------------------------------------------|
//b:-----------------------------------------------------------------|
//g:-----------------------------------------------------------------|
//d:-2--------2------3--------3------4--------4------5--------5------|x2
//a:-2----2-2-2--2-2-3----3-3-3--3-3-4----4-4-4--4-4-5----5-5-5--5-5-|
//e:-0----0-0-0--0-0-1----1-1-1--1-1-2----2-2-2--2-2-3----3-3-3--3-3-|
//        . .    . .      . .    . .      . .    . .      . .    . .

Both Guitars
e:----------------------------------------------------------|
b:----------------------------------------------------------|
g:----------------------------------------------------------|
d:-----------------------------7--5-----5-----5-------------|x4
a:-----2-----2-----4-----5-----5--3-3-3-3-3-3-3-2--0--------|
e:-0-0-0-0-0-0-0-0-2-2-2-3-3-3------------------------3--2--|

e:------|
b:------|
g:------|
d:-2----|
a:-2----|
e:-0----|

Clean Part 1

e:---------------------------------------------------------|
b:---------------------------------------------------------|
g:---------------------------------------------------------|
d:----2------2------2------2------0------0------0------0---|x4
a:---------------------------------------------------------|
e:-0----0-0----0-0----0-0----0-1----1-1----1-1----1-1----1-|


//Guitar 1 (clean)
//
//e:---------------------------------------------------------|
//b:---------------------------------------------------------|
//g:---------------------------------------------------------|
//d:----2------2------2------2------0------0------0------0---|x4
//a:---------------------------------------------------------|
//e:-0----0-0----0-0----0-0----0-1----1-1----1-1----1-1----1-|
//
//Guitar 2 (dist)
//
//e:---------------------------------------------------------|
//b:---------------------------------------------------------|
//g:---------------------------------------------------------|
//d:-2-2-----------2-2-----------3-3-----------3-3-----------|x4
//a:-2-2-----------2-2-----------3-3-----------3-3-----------|
//e:-0-0-----------0-0-----------1-1-----------1-1-----------|
//
//
//

e:------------------------------------------------------------------|
b:------------------------------------------------------------------|
g:------------------------------------------------------------------|
d:------------------------------------------------------------------|x4
a:------------------------------------------------------------------|
e:-0000000000222333222222222233322200000000002223331111111111333222-|

e:-----------------------------------------------------------------|
b:-----------------------------------------------------------------|
g:-----------------------------------------------------------------|
d:-----------------------------------------------------------------|x2
a:-2-----2-----4/5-4-----4-----5\4-2-----2-----4/5-3-----3-----5\4-|
e:-0-0-0-0-0-0-2/3-2-2-2-2-2-2-3\2-0-0-0-0-0-0-2/3-1-1-1-1-1-1-3\2-|
   ............   .............   .............   .............

e:---------------------------------------------|
b:---------------------------------------------|
g:---------------------------------------------|
d:-2---------3--2--------3---------3--2--------|x2
a:-2--3-2-3--------3--2--3--3-2-3--------3--2--|
e:-0---------------------1---------------------|

e:-----------------------------------------------------|
b:-----------------------------------------------------|
g:-----------------------------------------------------|
d:-------------10--9---------------------10--9---------|x4
a:-7--10-9-10---------10--9--8--10-9-10---------10--9--|
e:-----------------------------------------------------|

e:----------------------------------------------------|
b:----------------------------------------------------|
g:----------------------------------------------------|
d:----------------------------------------------------|x4
a:-7-8-7-5-7-8-7-5-7-8-7-5-7-8-7-5-8--8-8-8--10---8---|
e:----------------------------------------------------|

Clean Part 2

//Guitar 1
//e:-------0-----------0-----------0-----------0-----------0-----------0-----
//b:-----1---1-------1---1-------1---1-------1---1-------1---1-------1---1---
//g:---2-------2---2-------2---2-------2---2-------2---2-------2---2-------2-
//d:-2-----------2-----------3-----------3-----------2-----------2-----------
//a:-------------------------------------------------------------------------
//e:-------------------------------------------------------------------------
//
//Guitar 2
//e:-------------------------------------------------------------------------
//b:-------------------------------------------------------------------------
//g:-------------------------------------------------------------------------
//d:-2(let ring)-------------3(let ring)----------3--2(let ring)-------------
//a:-------------------------------------------------------------------------
//e:-------------------------------------------------------------------------
//
//Guitar 1
//-------0-----------0-----|
//-----1---1-------1---1---|
//---2-------2---2-------2-|
//-3-----------3-----------|
//-------------------------|
//-------------------------|
//                         |
//Guitar 2                 |x2
//-------------------------|
//-------------------------|
//-------------------------|
//7(let ring)--------------|
//-------------------------|
//-------------------------|
//
//Guitar 1
//e:-------0-----------0-----------0-----------0-----------0-----
//b:-----1---1-------1---1-------1---1-------1---1-------1---1---
//g:---2-------2---2-------2---2-------2---2-------2---2-------2-
//d:-2-----------2-----------3-----------3-----------2-----------
//a:-------------------------------------------------------------
//e:-------------------------------------------------------------
//
//Guitar 2
//e:-------------------------------------------------------------
//b:-------------------------------------------------------------
//g:-------------------------------------------------------------
//d:-10-9-7-9-7----7---------------------------------------------
//a:------------10---10-8-10-8-7-8-7-5-7-5-3-5-3-2-3-2-----------
//e:---------------------------------------------------3-3/5-5---


Just guitar
e:--------0-----------0-----------0----|
b:------1---1-------1---1-------1---1--|
g:---2-------2---2-------2---2-------2-|
d:-2-----------3-----------3-----------|
a:-------------------------------------|
e:-------------------------------------|



Both Guitars
e:---------------------------------------------------------------|
b:---------------------------------------------------------------|
g:---------------------------------------------------------------|
d:-2-2-2-2-2-2-2-2-2-2-2-2-2-2-2-2-2-2-2-2-2-2-2-2-2-2-2-2-2-2-2-|
a:-2-2-2-2-2-2-2-2-2-2-2-2-2-2-2-2-2-2-2-2-2-2-2-2-2-2-2-2-2-2-2-|
e:-0-0-0-0-0-0-0-0-0-0-0-0-0-0-0-0-0-0-0-0-0-0-0-0-0-0-0-0-0-0-0-|
   .............................................................

//Guitar 1
//
//e:---------------------------------------------------------------|
//b:---------------------------------------------------------------|
//g:---------------------------------------------------------------|
//d:-2-2-2-2-2-2-2-2-2-2-2-2-2-2-2-2-2-2-2-2-2-2-2-2-2-2-2-2-2-2-2-|
//a:-2-2-2-2-2-2-2-2-2-2-2-2-2-2-2-2-2-2-2-2-2-2-2-2-2-2-2-2-2-2-2-|
//e:-0-0-0-0-0-0-0-0-0-0-0-0-0-0-0-0-0-0-0-0-0-0-0-0-0-0-0-0-0-0-0-|
//   ..............................................................
//Guitar 2
//
//e:---------------------------------------------------------------|
//b:---------------------------------------------------------------|
//g:-4---------------3---------------------------------------------|
//d:-4---------------3------------2--------5--------3------------2-|
//a:-2---------------1------------2--------5--------3------------2-|
//e:--------------------------3-1-0--------3--------1--------3-1-0-|
//                            . .                            . .

Both Guitars
e:------------------------------------------------------------------------------
b:------------------------------------------------------------------------------
g:-4---------------3------------------------------------------------------------
d:-4---------------3------------2-2-2-2-2-2-2-2-5--------3------------2-------2-
a:-2---------------1------------2-2-2-2-2-2-2-2-5--------3------------2-------2-
e:--------------------------3-2-0-0-0-0-0-0-0-0-3--------1--------3-2-0---3-2-0-
                            . .................                   . .     . .

e:-------|
b:-------|
g:-------|
d:-----2-|
a:-----2-|
e:-3-2-0-|
   . .

e:-----------------------------------------------------------|
b:-----------------------------------------------------------|
g:-----------------------------------------------------------|
d:-----------------------------------------------------------|x4
a:-----2-----2-----2-----2-3-3-3-----2-----2-----------------|
e:-0-0-0-0-0-0-0-0-0-0-0-0-1-1-1-0-0-0-0-0-0-0-0-5--4--1--3--|
   .............................................


e:--------------------------------|
b:--------------------------------|
g:--------------------------------|
d:--------------------------------|
a:--------------------------------|
e:-1(dive bomb)-4---3---5---4---1-|
	      [R I T A R D A N D O]

e:-----------------------------------------|
b:-----------------------------------------|
g:-----------------------------------------|
d:-3----3----6--5--8--7--4--4--------------|x4
a:-3----3----6--5--8--7--4--4--3--2--------|
e:-1----1----4--3--6--5--2--2--------3--2--|

e:-----------------------------------------------------------|
b:-----------------------------------------------------------|
g:-----------------------------------------------------------|
d:-3-3--3-3-3--3-3-3--3-4-7-7--4-4--4-4-4--4-4-4--4-2--2--2--|
a:-3-3--3-3-3--3-3-3--3-4-7-7--4-4--4-4-4--4-4-4--4-2--2--2--|x4
e:-1-1--1-1-1--1-1-1--1-2-5-5--2-2--2-2-2--2-2-2--2-0--0--0--|

e:--------------------------------------------------------------------
b:--------------------------------------------------------------------
g:--------------------------------------------------------------------
d:-7-7--7-7-7--7-5-5--5-4-4--4-6-6--6-6-6--6-6-9--9--9--7-7--7-7-7--7-
a:-7-7--7-7-7--7-3-3--3-2-2--2-6-6--6-6-6--6-6-9--9--9--7-7--7-7-7--7-
e:-5-5--5-5-5--5---------------4-4--4-4-4--4-4-7--7--7--5-5--5-5-5--5-

e:--------------------------------------|
b:--------------------------------------|
g:--------------------------------------|
d:-------------6-6--6-6-6--6-9-9--9-9-9-|x2
a:-6--5--------6-6--6-6-6--6-9-9--9-9-9-|
e:-------6--5--4-4--4-4-4--4-7-7--7-7-7-|


e:---------------------|
b:---------------------|
g:---------------------|
d:-7----6----3--4--2---|x2
a:-7----6----3--4--2---|
e:-5----4----1--2--0---|

e:----------------------------------------------------|
b:----------------------------------------------------|
g:----------------------------------------------------|
d:-7------7------6------6------3------4------2------2-|x4
a:-7------7------6------6------3------4------2------2-|
e:-5--5-5-5--5-5-4--4-4-4--4-4-1--1-1-2--2-2-0--0-0-0-|
      . .    . .    . .    . .    . .    . .    . .

END

  Visit MetalTabs.com for more metal tablature

bottom separator

Contact Us | Privacy Policy | Disclaimer | Legal Notice
Copyright © 2001-2014 MetalTabs.com. All Rights Reserved.