top separator

Home

Forum

What's New

Submit a Tab

FAQ

Links

Contact Us

Link to Us

MetalTabs.com logo

Bands

0-9

A

B

C

D

E

F

G

H

I

J

K

L

M

N

O

P

Q

R

S

T

U

V

W

X

Y

Z

Search

What

Where
 

Inquisition (CO) - "The Realm of Shadows shall forever reign" Guitar Tab

Plain Text Version
More Inquisition (CO) Tabs

Hits: 3348
Rated: 5.00 out of 5 (3 votes)
Updated: 2004-12-14 16:27:24

 

By:

nyanchuk

sendpm.gif

email.gif

Important note
We did our best to reach Inquisition (CO) and ask for their permission to publish this tab. Unfortunately they did not respond to our requests or we could not find a way to contact them. This tab is available online until Inquisition (CO) tells us to take it down.


#----------------------------------PLEASE NOTE---------------------------------#
#This file is the author's own work and represents their interpretation of the #
#song. You may only use this file for private study, scholarship, or research. #
#Unless specified otherwise, this is NOT an official tab from the band members.#
#------------------------------------------------------------------------------#

  Visit MetalTabs.com for more metal tablature
  
Band:  Inquisition
Album: Invoking The Majestic Throne of Satan
Song:  The Realm of Shadows Shall Forever Reign

Copyright (c)  War Hammer Records (2002)

Transcribed By: nyanchuk
Email:          uklearpower@hotmail.com


Tunning D G C F A D


 Riff A:                            4x
|----------------------------------|
|----------------------------------|
|-----0-------0-------0-------0----|
|-2-2-----2-2-----2-2-----2-2---3--|
|-2-2---3-2-2---3-2-2---3-2-2---3--|
|-0-------0-------0-------0-----1--|


 Riff B:                            8x
|----------------------------------|
|----------------------------------|
|-----0000----0000----0000----7777-|
|-----4444----4444----444455557777-|
|-2222----2222----2222----55555555-|
|-0000----0000----0000----3333-----|


 Riff C:                            7x
|---------0------------------------|
|---------0-(let ring)-------------|
|---------0------------------------|
|-445522--222222222222222222222222-|
|-------33222222222222222222222222-|
|---------000000000000000000000000-|

 Fill 1:
 ----------
 ----------
 ----------
 -445522---
 -------33-
 ----------


play Riff B x8
play Riff C x7, into Fill 1


 Riff D:                            8x
|----------------------------------|
|----------------------------------|
|---------0-----------0-------0----|
|-2-----2-------------0-------0----|
|-2-----------3---3/5--------------|
|-0-----------------------3/5------|

play Riff D x8
play Riff D x8
play Riff D x8
play Riff D x4

 Fill 2:
 --0-----0-----0-----0------
 --0-----0-----0-----0------
 --9-----9-----9-----9------
 --9-----9-----9-----9------
 --7-----7-----7-----7------
 ----000---000---000---000--

Riff E:                                 x2
|-----0-----0-0-----0-----0-----0------|
|----0-----0--0-----0-----0-----0------|
|-7-7---5-5---9-----9-----9-----9------|
|-7-----5-----9-----9-----9-----9------|
|-5-----3-----7-----7-----7-----7------|
|---------------000---000---000---000--|


play Riff E x2 (with Lead A)
play Riff E x7
play Riff E x6 (with Lead B) (fadeout last 2x)

 Lead A:
|-10bf---10bf---10bf~------------------10bf---10bf------------------------|
|-------------------------------------------------------------------------|
|---------------------------------------------------/9~-------------------|
|-------------------------------------------------------------------------|
|-------------------------------------------------------------------------|
|-------------------------------------------------------------------------|

 Lead B:
|-----------------------------------p7p3p0h3h7h12--p7p3p0h3h7h12--p7p3p0h3h7h12-
|-------------------------------------------------------------------------------
|-------------------------------------------------------------------------------
|-------------------------------------------------------------------------------
|-------------------------------------------------------------------------------
|-------------------------------------------------------------------------------

-12-p7p3p0h3h7h-|
----------------|
--just this-----|
--tapping part--|
--repeated------|
----------------|




The End

  Visit MetalTabs.com for more metal tablature

bottom separator

Contact Us | Privacy Policy | Disclaimer | Legal Notice
Copyright © 2001-2014 MetalTabs.com. All Rights Reserved.