top separator

Home

Forum

What's New

Submit a Tab

FAQ

Links

Contact Us

Link to Us

MuSpy.com

MetalTabs.com logo

Bands

0-9

A

B

C

D

E

F

G

H

I

J

K

L

M

N

O

P

Q

R

S

T

U

V

W

X

Y

Z

Search

What

Where
 

My Dying Bride - "The Prize of Beauty" Guitar Tab

Plain Text Version
More My Dying Bride Tabs

Hits: 8628
Rated: 3.38 out of 5 (8 votes)
Updated: 2004-12-14 16:04:03

 

By:

sendpm.gif

email.gif

Important note
This tab is available online because we obtained explicit permission from My Dying Bride or their label.


#----------------------------------PLEASE NOTE---------------------------------#
#This file is the author's own work and represents their interpretation of the #
#song. You may only use this file for private study, scholarship, or research. #
#Unless specified otherwise, this is NOT an official tab from the band members.#
#------------------------------------------------------------------------------#

  Visit MetalTabs.com for more metal tablature
  
Artist: My Dying Bride
Song: The Prize Of Beauty
Album: Songs Of Darkness, Words Of Light

Tabbed by me, a guy from the north of Norway and likes metal ;)

Note:
Easy, LONG song by My Dying Bride. The riffs are reapeted many times.
 Iím sure this ainít 100% correct but itís better than nothing. Enjoy.

Tune your guitar 3 steps down, to C# standard.

Intro:

Riff 1: Clean
|-----------------------------------|
|-----------------------------------|
|-----------------------------------|
|-----------------------------------|
|--0h2ó-3--/5ó-3--2h3-7---9h10-9-7--|
|--0-let ring-----------8-----------|

Riff 2: Heavy

|---------------------------------|
|---------------------------------|
|---------------------------------|
|--2----3-5-6---6-5-3-------------|
|--2----3-5-6---6-5-3-------------|
|--0----1-3-4---4-3-1-------------|

Then play riff 1 again
Then riff 2 again
Then riff 1 again

Riff 3: Heavy
|-----------------------------|
|-----------------------------|
|-----------------------------|
|----2------------------------|
|----2------3------2-----0----|
|--x-0----x-4----x-3---x-1----|

Then riff 1 again
Then the drums enters
And you play riff 3  4 times


Per-verse:
Riff 4: Clean
|---------------------------------------------------|
|---------------------------------------------------|
|---------------------------------------------------|
|------5-----5-----5-----5-----5-----5-----5-----5--|
|----7-----7-----7-----7-----7-----7-----7-----7----|
|--0-----0-----0-----0-----0-----0-----0-----6------|

After playing this riff 4 times, the heavy verse comes in.
Riff 4 is played under the heavy verse:

Verse:
Riff 5: Heavy
|--------------------------------------------------------------------|
|--------------------------------------------------------------------|
|--------------------------------------------------------------------|
|--------------------------------------------------------------------|
|----------------------------1-1-1-1-------------------------1-1-1-1-|
|--0-0-0-0-0-0-0-0-0-0-0-0-0---------2-2-2-2-2-2-2-2-2-2-2-2---------|


|---------------------------------------------------------------------|
|---------------------------------------------------------------------|
|---------------------------------------------------------------------|
|---------------------------------------------------------------------|
|--3-3-3-3-3-3-3-3-3-3-3-3-1-1-1-1-------------------------1-1-1-1----|
|----------------------------------2-2-2-2-2-2-2-2-2-2-2-2------------|

The verse is played...many times...Iím to lazy to count

Then theres is this interlude-thing:

Interlude:
Riff 6: Clean
|------------------------------------------------------------------|
|------------------------------------------------------------------|
|------------------------------------------------------------------|
|------------------------------------------------------------------|
|--12-12-12-12-12-12-12-12-12-12-12-12-10-10-10-10-10-10-10-10-----|
|------------------------------------------------------------------|


|------------------------------------------------------------------|
|------------------------------------------------------------------|
|------------------------------------------------------------------|
|------------------------------------------------------------------|
|--10-10-10-10-5-5-5-5-5-5-5-5-5-5-8-7-1-1-1-1-1-1-----------------|
|--------------------------------------------------1-1-1-5-5-5-----|

After playing riff 6 a couple of times a harmony comes in.
I think its played like this:

Riff 7: Clean
|-------------------------------------------------------------------|
|-------------------------------------------------------------------|
|-------------------------------------------------------------------|
|-------------------------------------------------------------------|
|-------------------------------------------------------------------|
|--10-10-10-10-10-10-10-10-10-10-10-10-12-12-12-12-12-12-12-12------|

|-----------------------------------------------------------------|
|-----------------------------------------------------------------|
|-----------------------------------------------------------------|
|--------------8-8-8-8-8-8-8-8-8-8--------------------------------|
|----------------------------------8-7-1-1-1-1-1-1----------------|
|--12-12-12-12-------------------------------------1-1-1-5-5-5----|

After playing riff 6 and 7 a couple of times you just
play the same riffs, just with distortion.

Then there is this heavy riff:

Riff 8: Heavy
|---------------------------------|
|---------------------------------|
|---------------------------------|
|--2---2---8---3---7--------------|
|--2---2---8---3---7--------------|
|--0---0---6---1---5--------------|

Play this some times then there is the outro:

Outro:
The outro is 2 guitars playing together. Not sure about the harmony
But whatever.

Riff 9: Heavy
|-------------------------------------------------------------------------|
|-------------------------------------------------------------------------|
|-------------------------------------------------------------------------|
|------9-------9---------10-------10---------12-----12--------------------|
|-10-------10------12-12-------12-----14-14------14-----15-15-------14----|
|-------------------------------------------------------------17-17----17-|


Here is what i THINK the harmony is played like:

Riff 10:
|-------------------------------------------------------------------------|
|-------------------------------------------------------------------------|
|-------------------------------------------------------------------------|
|-------------------------------------------------------------------------|
|-----10-------10---------12------12---------14-----14--12-12-------------|
|-12--------12------14-14------14-----15-15------15-----------14-14-15-14-|

Play that some times and the song is over!

Still thereís some piano thing, but who cares.

  Visit MetalTabs.com for more metal tablature

bottom separator

Contact Us | Privacy Policy | Disclaimer | Legal Notice
Copyright © 2001-2014 MetalTabs.com. All Rights Reserved.