top separator

Home

Forum

What's New

Submit a Tab

FAQ

Links

Contact Us

Link to Us

MetalTabs.com logo

Bands

0-9

A

B

C

D

E

F

G

H

I

J

K

L

M

N

O

P

Q

R

S

T

U

V

W

X

Y

Z

Search

What

Where
 

Suffocation - "Funeral Inception" Guitar Tab

Plain Text Version
More Suffocation Tabs

Hits: 9061
Rated: 2.40 out of 5 (5 votes)
Updated: 2006-03-10 03:05:38

 

By:

Yura

sendpm.gif

email.gif

Important note
This tab is available online because we obtained explicit permission from Suffocation or their label.


#----------------------------------PLEASE NOTE---------------------------------#
#This file is the author's own work and represents their interpretation of the #
#song. You may only use this file for private study, scholarship, or research. #
#Unless specified otherwise, this is NOT an official tab from the band members.#
#------------------------------------------------------------------------------#

  Visit MetalTabs.com for more metal tablature
  
Song : FUNERAL INCEPTION
Band : SUFFOCATION
ALBUM : DESPISE THE SUN
Copyright Relapse Records 1998

Version 2.0 (February'06)
Transcribed by : Yura Kowalchuk
       contact : yura_kowalchuk@mail.ru
URL: [www.blood-scrapes.nm.ru]

::TABULATURE LEGEND::
 " - tremolo             h - hammer on
 ~ - vibrato             \ - slide down
 p - pull off            / - slide down
 tr - trill              ^ - pinch harmonics
 = - sustained note      b - bend string
 p.m. - palm muting      t - tapping

Tuning is C# [C#,F#,B,e,g#,c#]

[Part 1 (x2)]
|-------------------------|----------------------
|-------------------------|----------------------
|-------------------------|----------------------
|-------------------------|----------------------
|-444-333-5-6-444-333-4-5-|-444-333-5-6-5-6-4-5--
|-222-111-3-4-222-111-2-3-|-222-111-3-4-3-4-2-3--
  ... ... . . ... ... . .   ... ... . . . . . .

-------------------------|----------------------|
-------------------------|----------------------|
-------------------------|----------------------|
-------------------------|-------------4-----3--|
-444-333-5-6-444-333-4-5-|-444-333-5-6-2-5-4-1--|
-222-111-3-4-222-111-2-3-|-222-111-3-4---3-2----|
 ... ... . . ... ... . .   ... ... . .   . .

[Outro 1]
|---------------------------------------------|
|---------------------------------------------|
|---------------------------------------------|
|----4-----3-------4-----3----4-----3---------|
|-3--2-5-4-1-4--3--2-5-4-1-3--2-5-4-1-4-5-4-5-|
|-1----3-2---2--1----3-2---1----3-2---2-3-2-3-|
     . . .         . . .      . . .   . . . .

[PART 1 (x2)] [OUTRO 1]

[Outro 2]
|------------------------------------------------------------------
|------------------------------------------------------------------
|------------------------------------------------------------------
|---------3-------------------------------3-------4-------3--------
|-4-5-4-3-1-------------------------------1-------2-------1--------
|-2-3-2-1---111111111111111111111111111111--111111--111111--111111-
| . . . .   ..............................  ......  ......  ......
|------------------------------------------------------------------
|------------------------------------------------------------------
|------------------------------------------------------------------
|---------3--------------------------------------------------------
|-4-5-4-3-1--------------------------------------------------------
|-2-3-2-1----------------------------------------------------------
  . . . .

------------------------------------------------------------------------|
------------------------------------------------------------------------|
------------------------------------------------------------------------|
---------3-------------------------------3-------4-------6\5------------|
-5-5-6-5-1-------------------------------1-------2-------4\3-7-6-5-6-4--|
-3-3-4-3---111111111111111111111111111111--111111--111111----5-4-3-4-2--|
 . . . .   ..............................  ......  ......    . . . . .  |
------------------------------------------------------------------------|
------------------------------------------------------------------------|
------------------------------------------------------------------------|
---------3-----------------------------------------------6\5------------|
-5-5-6-5-1-----------------------------------------------4\3-7-6-5-7-4--|
-3-3-4-3-----------------------------------------------------5-4-3-4-2--|
 . . . .                                                     . . . .

[Part 2a (x2)]
|--------------------------------------------------------------------
|--------------------------------------------------------------------
|--------------------------------------------------------------------
|-3-------------------------------3--------4--------3----------------
|-1-------------------------------1--------2--------1--------5-5-6-5-
|---111111111111111111111111111111---111111---111111----1111-3-3-4-3-
    ..............................   ......   ......    .... . . . .

-[ending 1]--------------------------------------------------------|
-------------------------------------------------------------------|
-------------------------------------------------------------------|
-3-------------------------------3--------4--------6\5-----5\4-----|
-1-------------------------------1--------2--------4\3-7-6-3\2-6-5-|
---111111111111111111111111111111---111111---111111----5-4-----4-3-|
                                                       . .     . .

-[ending 2]---------------------------------------------------------|
--------------------------------------------------------------------|
--------------------------------------------------------------------|
-3-------------------------------3--------4---------6\5-------------|
-1-------------------------------1--------2---------4\3-7-6-5-5-6-5-|
---111111111111111111111111111111---111111---111111-----5-4-3-3-4-3-|
   ..............................   ......   ......     . . . . . .

[Part 3a] /both guitars/
|----------------------------------|----------------------------------
|----------------------------------|----------------------------------
|----------------------------------|----------------------------------
|----------------------------------|---------44444444-----------------
|---------7777---------------------|-33333333--------2222222222222222-
|-44444444----66663333333333333333-|----------------------------------

----------------------------------|-----------------------------------|
----------------------------------|-----------------------------------|
----------------------------------|-----------------------------------|
----------------------------------|---------44444444-6\5--------------|
---------7777---------------------|-33333333---------4\3-7-6-5--4--3--|
-44444444----66663333333333333333-|----------------------5-4-3--2--1--|
                                                         . . .  .  .
[Part 2b (x2)]
|--------------------------------------------------------------------
|--------------------------------------------------------------------
|--------------------------------------------------------------------
|-3-------------------------------3--------4--------3----------------
|-1-------------------------------1--------2--------1--------5-5-6-5-
|---111111111111111111111111111111---111111---111111----1111-3-3-4-3-
    ..............................   ......   ......    .... . . . .

-[ending 1]-------------------------------------------------------|
------------------------------------------------------------------|
------------------------------------------------------------------|
-3-------------------------------3--------4--------6\5------------|
-1-------------------------------1--------2--------4\3-7-6-5-6-4--|
---111111000000000000000000000000---111111---111111----5-4-3-4-2--|
                                                       . . . .

-[ending 2]---------------------------------------------------------|
--------------------------------------------------------------------|
--------------------------------------------------------------------|
-3-------------------------------3--------4---------6\5-------------|
-1-------------------------------1--------2---------4\3-7-6-5-5-6-5-|
---111111000000000000000000000000---111111---111111-----5-4-3-3-4-3-|
   ..............................   ......   ......     . . . . . .

[Part 3b]
|----------------------------------|----------------------------------
|----------------------------------|----------------------------------
|----------------------------------|----------------------------------
|----------------------------------|---------44444444-----------------
|---------7777---------------------|-33333333--------2222222222222222-
|-44444444----66663333333333333333-|----------------------------------
|                                  |
|----------------------------------|----------------------------------
|----------------------------------|----------------------------------
|----------------------------------|----------------------------------
|----------------------------------|---------44444444-----------------
|---------7777---------------------|-33333333--------2222222222222222-
|-44444444----66663333333333333333-|----------------------------------


----------------------------------|-----------------------------------|
----------------------------------|-----------------------------------|
----------------------------------|-----------------------------------|
----------------------------------|---------44444444-6-5--------------|
---------7777---------------------|-33333333---------4-3-7-6-5--4--3--|
-44444444----66663333333333333333-|----------------------5-4-3--2--1--|
                                                         . . .  .  .  |
----------------------------------|-----------------------------------|
----------------------------------|-----------------------------------|
----------------------------------|-----------------------------------|
---------7777---------------------|------------------6-5--------------|
-44444444----66663333333333333333-|-33333333---------4-3-7-6-5--4--3--|
----------------------------------|---------22222222-----5-4-3--2--1--|
                                                         . . .  .  .
[Outro 3]
|-------------------------|---------------------
|-------------------------|---------------------
|-------------------------|---------------------
|-------------------------|---------------------
|-444-333-5-6-444-333-4-5-|-444-333-5-6-5-6-4-5-
|-222-111-3-4-222-111-2-3-|-222-111-3-4-3-4-2-3-
| ... ... . . ... ... . . | ... ... . . . . . .
|-------------------------|---------------------
|-------------------------|---------------------
|-------------------------|---------------------
|-------------------------|---------------------
|-------------444-333-----|-444-333-5-6-5-6-4-5-
|-------------222-111-----|-222-111-3-4-3-4-2-3-
              ... ...       ... ... . . . . . .

-------------------------|----------------------|
-------------------------|----------------------|
-------------------------|----------------------|
-------------------------|-------------4-----3--|
-444-333-5-6-444-333-4-5-|-444-333-5-6-2-5-4-1--|
-222-111-3-4-222-111-2-3-|-222-111-3-4---3-2----|
 ... ... . . ... ... . .   ... ... . .   . .    |
-------------------------|----------------------|
-------------------------|----------------------|
-------------------------|----------------------|
-------------------------|-------------4-----3--|
-444-333-5-6-444-333-4-5-|-444-333-5-6-2-5-4-1--|
-222-111-3-4-222-111-2-3-|-222-111-3-4---3-2----|
 ... ... . . ... ... . .   ... ... . .   . .

[PART 1]

[Outro 4]
|-------------------------------------------|
|-------------------------------------------|
|-------------------------------------------|
|----4-----3-------4-----3----4-----3-------|
|-3--2-5-4-1-4--3--2-5-4-1-3--2-5-4-1-4--3--|
|-1----3-2---2--1----3-2---1----3-2---2--1--|
     . . .         . . .      . . .

[Bass interlude]
|-------------|-------------|-------------|-------------|
|-------------|-------------|-------------|-------------|
|-------------|-------------|-------------|-------------|
|-2--1--0--1--|-2--1--2--1--|-0--1--2--1--|-0--1--2--1--|

[Outro 5] /both guitars/
-------------||-------------|-------------|-----------||
-------------||-------------|-------------|-----------||
-------------||-------------|-------------|-----------||
-------------||-------------|-------------|-----------||
-6--7--5--6--||-4--3--2--3--|-4--3--6--7--|-5--6------||
-4--5--3--4--||-2--1--0--1--|-2--1--4--5--|-3--4------||
 .  .  .  .     .  .  .  .    .  .  .  .    .  .

[Part 4a (x2)] /both guitars/
|-------------------------|-------------------------------------
|-------------------------|-------------------------------------
|-------------------------|-------------------------------------
|-------------------------|-------------------------------------
|-4--3--2--3--4--3--4--3--|-2--3--4--3--2--3--4--3--6--7--5--6--
|-2--1--0--1--2--1--2--1--|-0--1--2--1--0--1--2--1--4--5--3--4--
  .  .  .  .  .  .  .  .    .  .  .  .  .  .  .  .  .  .  .  .

-------------------------|-------------------------------------|
-------------------------|-------------------------------------|
-------------------------|-------------------------------------|
-------------------------|-------------------------------4--5--|
-4--3--2--3--4--3--4--3--|-2--3--4--3--2--3--4--3--6--7--2--3--|
-2--1--0--1--2--1--2--1--|-0--1--2--1--0--1--2--1--4--5--2--3--|
 .  .  .  .  .  .  .  .    .  .  .  .  .  .  .  .  .  .  .  .

[Outro 6]
|----------------------------------|-----------------------------[x2]-|
|----------------------------------|----------------------------------|
|----------------------------------|----------------------------------|
|-------------------------4--5-----|----------------------------------|
|-4--3--2--3--4--3--6--7--2--3-----|-4--3--2--3--4--3--6--7--5--6-----|
|-2--1--0--1--2--1--4--5--2--3-----|-2--1--0--1--2--1--4--5--3--4-----|
  .  .  .  .  .  .  .  .  .  .       .  .  .  .  .  .  .  .  .  .

[...continue]
||-------------------------|---------------------|
||-------------------------|---------------------|
||-------------------------|---------------------|
||-------------------------|---------------------|
||-4--3--2--3--4--3--6--7--|-5--6--4--5--3--4----|
||-2--1--0--1--2--1--4--5--|-3--4--2--3--1--2----|
|  .  .  .  .  .  .  .  .  | .  .  .  .  .  .    |
||-------------------------|---------------------|
||-------------------------|---------------------|
||-------------------------|---------------------|
||-------------------------|---------------------|
||-4--3--2--3--4--3--6--7--|-5--6----------------|
||-2--1--0--1--2--1--4--5--|-3--4----------------|
   .  .  .  .  .  .  .  .    .  .

[Part 5]
|----------------------------------------------------------------
|----------------------------------------------------------------
|----------------------------------------------------------------
|----------------------------------------------------------------
|-4--------------------------------4------------4-5-4--------3-4-
|-2--------------------------------2------------2-3-2--------1-2-
| .                                .            . . .        . .
|----------------------------------------------------------------
|----------------------------------------------------------------
|----------------------------------------------------------------
|----------------------------------------------------------------
|-4----------2-4-5-4-------3-2-----4------------4-5-4--------3-4-
|-2-00000000-0-2-3-2-0-2-3-----3-2-2-0000000000-2-3-2-000000-1-2-
    ........ . . . . . . . . . . .   .......... . . . ...... . .

---------------------------------------------------------------------------|
---------------------------------------------------------------------------|
---------------------------------------------------------------------------|
-----------------------------------------------------------6-----7-----8-7-|
-3---6-7-4------------4-5-4---4-5---------4------------5-6-4-5-7-5-7-8-6-5-|
-1---4-5-2------------2-3-2---2-3---------2------------3-4---4-5---5-6-----|
 .   . . .            . . .   . .         .            . . . . . . . . . . |
---------------------------------------------------------------------------|
---------------------------------------------------------------------------|
---------------------------------------------------------------------------|
-----------------------------------------------------------6-----7-----8-7-|
-3-2-6-7-4----------2-4-5-4-------3-2-----4------------5-6-4-6-7-5-7-8-6-5-|
-1-0-4-5-2-00000000-0-2-3-2-0-2-3-----3-2-2-0000000000-3-4---4-5---5-6-----|
 . . . . . ........ . . . . . . . . . . .   .......... . . . . . . . . . .

[PART 5 /both guitars/ (x2)]

[Outro 7]
|-/both gutiars/------------------|---------------------------------
|---------------------------------|---------------------------------
|---------------------------------|---------------------------------
|---------------------------------|---------------------------------
|-4-3-5-6-4-3-4-5-4-3-5-6-5-6-4-5-|---------------------------------
|-2-1-3-4-2-1-2-3-2-1-3-4-3-4-2-3-|---------------------------------
| . . . . . . . . . . . . . . . . |
|-/bass/--------------------------|---------------------------------
|---------------------------------|---------------------------------
|---------------------------------|---------------------------------
|---------------------------------|-2-1-3-4-2-1-2-3-2-1-3-4-3-4-2-3-


------------------------------|
------------------------------|
------------------------------|
------------------------------|
-4--5-6-5--4-5-4--5-6-5-6-4-5-|
-2--3-4-3--2-3-2--3-4-3-4-2-3-|
 .  . . .  . . .  . . . . . .

[Part 6 (x2)] /both guitars/                                           ..Out
|--------------------------------------------------|------------------|----
|--------------------------------------------------|------------------|----
|--------------------------------------------------|------------------|----
|--------------------------------------------------|----------4-----3-|----
|--------------------------------------------------|----------2-5-4-1-|-3--
|-221133442211223322113344334422332211334422112233-|-22113344---3-2---|-1--

[PART 6 (x2)] [OUTRO 1]

END OF SONG

  Visit MetalTabs.com for more metal tablature

bottom separator

Contact Us | Privacy Policy | Disclaimer | Legal Notice
Copyright © 2001-2014 MetalTabs.com. All Rights Reserved.