top separator

Home

Forum

What's New

Submit a Tab

FAQ

Links

Contact Us

Link to Us

MetalTabs.com logo

Bands

0-9

A

B

C

D

E

F

G

H

I

J

K

L

M

N

O

P

Q

R

S

T

U

V

W

X

Y

Z

Search

What

Where
 

Avulsed - "Exorcismo Vaginal" Guitar Tab

Plain Text Version
More Avulsed Tabs

Hits: 3365
Rated: 3.50 out of 5 (2 votes)
Updated: 2004-12-09 08:43:31

 

By:

Robbie Filth

sendpm.gif

email.gif

Important note
This tab is available online because we obtained explicit permission from Avulsed or their label.


#----------------------------------PLEASE NOTE---------------------------------#
#This file is the author's own work and represents their interpretation of the #
#song. You may only use this file for private study, scholarship, or research. #
#Unless specified otherwise, this is NOT an official tab from the band members.#
#------------------------------------------------------------------------------#

  Visit MetalTabs.com for more metal tablature
  
Band: Avulsed
Album: Stabwound Orgasm
Song: Exorcismo Vaginal
Record Label: WWIII
Tuning: CGCFAD

Listen 2 song 4 rythm
----------------------------------
----------------------------------
----------------------------------
----------------------------------
-3-2-3-6-3-6-3-2-0-3-2-6-5-10-9---
-3-2-3-6-3-6-3-2-0-3-2-6-5-10-9---X4

-----------------          -------------
-----------------          -------------
-----------------          -------------
-----------------          -------------
-01000--5032-----          -33-33-33----
-01000-----------X3        -33-33-33----X2

----------------------------------
----------------------------------
----------------------------------
----------------------------------
-3-2-3-6-3-6-3-2-0-3-2-6-5-10-9---
-3-2-3-6-3-6-3-2-0-3-2-6-5-10-9---X4

----------------------------------------
----------------------------------------
----------------------------------------
----------------------------13121312----
-00------00------00------00-------------
-00-5454-00-4343-00-3232-00-------------X8

-------------
-------------
-------------
-7-3---6-----
-5-1-3-4-----
-----3-------X4     ---0---

                                   ph
-----------------------------------------
-----------------------------------0-----
-----------------------------------------
-----------------------------------------
-2-00003322---2--------2-3-1-2-0-1-------
-2-00003322--------X3--2-3-1-2-0-1-------X2

---------------
---------------
---------------
---------------
-6-5-6-9-9-8---
-6-5-6-9-9-8---X2

                                  ph
-----------------------------------------
-----------------------------------0-----
-----------------------------------------
-----------------------------------------
-2-00003322---2--------2-3-1-2-0-1-------
-2-00003322--------X3--2-3-1-2-0-1-------X2

---------------
---------------
---------------
---------------
-6-5-6-9-9-8---
-6-5-6-9-9-8---X2

-----------
-----------
-----------
-----------
--3--3--3--
--3--3--3--

----------------------------------
----------------------------------
----------------------------------
----------------------------------
-3-2-3-6-3-6-3-2-0-3-2-6-5-10-9---
-3-2-3-6-3-6-3-2-0-3-2-6-5-10-9---X4

----------------------------------------
----------------------------------------
----------------------------------------
----------------------------13121312----
-00------00------00------00-------------
-00-5454-00-4343-00-3232-00-------------X8

  Visit MetalTabs.com for more metal tablature

bottom separator

Contact Us | Privacy Policy | Disclaimer | Legal Notice
Copyright © 2001-2014 MetalTabs.com. All Rights Reserved.