top separator

Home

Forum

What's New

Submit a Tab

FAQ

Links

Contact Us

Link to Us

MuSpy.com

MetalTabs.com logo

Bands

0-9

A

B

C

D

E

F

G

H

I

J

K

L

M

N

O

P

Q

R

S

T

U

V

W

X

Y

Z

Search

What

Where
 

Psycroptic - "Of Dull Eyes Borne" Guitar Tab

Plain Text Version
More Psycroptic Tabs

Hits: 3293
Rated: 4.43 out of 5 (7 votes)
Updated: 2004-12-09 08:40:42

 

By:

Cloaca

sendpm.gif

email.gif

Important note
This tab is available online because we obtained explicit permission from Psycroptic or their label.


#----------------------------------PLEASE NOTE---------------------------------#
#This file is the author's own work and represents their interpretation of the #
#song. You may only use this file for private study, scholarship, or research. #
#Unless specified otherwise, this is NOT an official tab from the band members.#
#------------------------------------------------------------------------------#

  Visit MetalTabs.com for more metal tablature
  
Psycroptic - 'Of Dull Eyes Borne'
The Isle Of Disenchantment (2001)
Self Released

Tabbed by Tim Snowsill (Tim_Snowsill@hotmail.com)
06/12/04

________________________________________________________________________________
Tab Rhythm is hardly perfect so listen to CD. Any comments or corrections can be
e-mailed to above address.

________________________________________________________________________________
Dropped C# Tuning (C#,G#,C#,F#,A#,D#)


 Riff A                                              _________________  ______
   Gtr. 1                                           |               1. |    2.
||-------------------------------------------------|------------------|-------||
||-------------------------------------------------|-----------------.|-------||
||-------------------------------------------------|------------------|-------||
||-------------------------------------------------|-8888----7777----.|-8--7--||
||-5555----555566665555----5555----5555----55556666|-----6666----5555-|--55---||
||-----0000------------0000----6666----0000--------|------------------|-----6-||


 Riff A1                     _________________  _________________________
   Gtr. 1                   |              1.  |                       2.
||-------------------------|------------------|---------------------------||
||-------------------------|-----------------.|---------------------------||
||-------------------------|------------------|---------------------------||
||-7---7/8\7---7---7---7-8-|-8888----7777----.|-8888----7777-----5--------||
||-5---5/6\5---5---5---5-6-|-----6666----5555-|-----6666----5555---3-0-3~-||
||---0-------0---6---0-----|------------------|------------------------3~-||



 Riff B                                                ___  ___
   Gtr. 1                                             | 1. | 2.
||---------------------------------------------------|----|----||
||---------------------------------------------------|---.|----||
||---------------------------------------------------|----|----||
||-----------------------5---------------------------|---.|----||
||------------------4~1---3--------------------------|-3--|-1--||
||-444444445p44444444~-43--3~-444444445p44444448p47p4|-3--|-1--||


 Riff A1 1x

 Riff B  2x


 Fill 1
   Gtr. 1
||--------||
||--------||
||--------||
||-3~-----||
||-5~-----||
||--------||


 Riff C
   Gtr. 1
||-------------------------------------------------|
||-------------------------------------------------|
||-------------------------------------------------|
||-----------------------------5---------5-7-------|
||---5-8---5-8---3-7---3-7---8-----8-5---------8-5-|
||-0-----0-----0-----0-----0-----0-----0-----0-----|

 Riff C (Cont.)
   Gtr. 1                                     (1x)
||------------------------------------------------||
||-----------------------------------------------.||
||------------------------------------------------||
||------8------8------7------7-----5-----5-3~----.||
||-----------------------------------------5~--0--||
||-8-12---8-12---7-10---7-10---5-7---5h7-------0--||
||                                                ||
|| Gtr. 2                                         ||
||------------------------------------------------||
||-----------------------------------------------.||
||------------------------------------------------||
||---------------------------------------5-3~----.||
||-8-------------7-------------5-----------5~--0--||
||-8-------------7-------------5-----5h7-------0--||


 Riff D
   Gtr. 1
||-------------------------------------------------|
||-------------------------------------------------|
||-------------------------------------------------|
||-3-----3-----2-----2-----5-----2-----7-----3-----|
||-5-----5-----3-----3-----7-----3-----8-----5-----|
||---0-0---0-0---0-0---0-0---0-0---0-0---0-0---0-0-|

 Riff D (Cont.)
   Gtr. 1                                     (1x)
||------------------------------------------------||
||------------------------------------------------||
||------------------------------------------------||
||--8------8-----7-----7-----5----------3~--------||
||-10-----10-----8-----8-----7--------5-5~--0---0-||
||----8-8----8-8---7-7---7-7---5-5-0h5------0---0-||



 Riff E
   Gtr. 1
||------------------------------------------------------------------|
||------------------------------------------------------------------|
||------------------------------------------------------------------|
||-7----6----5----------3----2--------------7----6------------------|
||-5555545555355555555551555505555------5---55555455553h55555555555-|
||--------------------------------6-6666-66-------------------------|

 Riff E (Cont.)_________   ____________________
   Gtr. 1     |       1.  |                   2.
||----------------------|----------------------||
||---------------------.|----------------------||
||----------------------|----------------------||
||------------5-6p5-5--.|------------5-6p5565--||
||-5h6p5-5-569-5---9-96-|-5h6p5-5-569-5------8-||
||------8-7-------------|------8-7-------------||



 Riff F                     ________________  _______________________
   Gtr. 1                  |           1,3.  |                   2,4.
||------------------------|-----------------|-------------------------||
||------------------------|----------------.|------------------------.||
||--------------8---------|-----------------|-------------------------||
||-5555556p55555-5555556\-|----------------.|-------------56p59p56p5-.||
||---------------------6\-|-5--6--3--1-1-3--|-5h6p5-5-5689------------||
||------------------------|-5--6--3--1-1-3--|------8-7----------------||



 Riff G
   Gtr. 1                                 (2x)
||--------------------------------------------||
||-------------------------------------------.||
||--------------------------------------------||
||------------5-6p5565-------------5-6p5565--.||
||-5h6p5-5-569-5------8-5h6p5-5-569-5------8--||
||------8-7------------------8-7--------------||


 Riff H
   Gtr. 1                           (2x)
||--------------------------------------||
||--------------------------------------||
||--------------------------------------||
||------5--5h6p5-5--------5--5h6p5-5----||
||-5h6h9-69-----9-96-5h6h9-69-----9-96--||
||--------------------------------------||
   |___||_||___||__| |___||_||___||__|


 Riff G 2x

 Riff H 2x


 Riff A2
   Gtr. 1
||-------------------------|------------------||
||-------------------------|-----------------.||
||-------------------------|------------------||
||-7---7-8-7---7---7-7-7-8-|-8888----7777----.||
||-5---5-6-5---5---5-5-5-6-|-----6666----5555-||
||---0-------0---6---------|------------------||


 Riff A3
   Gtr. 1
||---------------------------------------------------------||
||---------------------------------------------------------||
||---------------------------------------------------------||
||--------------------------------------------------8--7---||
||-5555----555566665555----5555----5555----55556666--55-6~-||
||-----0000------------0000----6666----0000-------------6~-||


 Riff A 1x


 Riff I
   Gtr. 1
|------------------------------------------------------------------------------|
|------------------------------------------------------------------------------|
|-----------------------------------------------------------------5555---------|
|-----------------------------6666----5555-------------------------------------|
|---------------------88885555----7777----6666----8888--------5555----88885555~|
|-000-000-000-000-000-------------------------000-----88885555-----------------|

 Riff I (Cont.)
   Gtr. 1
|---------------------------------------------------------|
|---------------------------------------------------------|
|---------------------------------------------------------|
|---------6666----5555---------------------------------7~-|
|-88885555----7777----6666-------0-3-2-0-8-5-0-9-8-0-4-5~-|
|--------------------------0-2-3--------------------------|

Riff I (Cont.)
   Gtr. 1
|------------------------------------------------------|
|-----------------------------------------------------.|
|-------------------------------------------------5-7~-|
|-------------6666----5555----------------------------.|
|-----88885555----7777----6666----8888--------5555-5---|
|-000-------------------------000-----88885555---------|

 Riff I (Cont.)
   Gtr. 1                                               (1x)
|------------------------------------------------------------||
|------------------------------------------------------------||
|------------------------------------------------------------||
|-------------6666----5555--------------------------------7~-||
|-----88885555----7777----6666------0-3-2-0-8-5-0-9-8-0-4-5~-||
|-000-------------------------0-2-3--------------------------||



 Riff J
   Gtr. 1
||-----------------------------------------------------|
||-----------------------------------------------------|
||-----------------------------------------9--8--------|
||-6------7------9------10-9-6------7------7--6--10-6--|
||-4444444544444474444448--7-44444445444444------8--7--|
||-----------------------------------------------------|

 Riff J (Cont.)
   Gtr. 1
|------------------------|-------------------------------------------------|
|------------------------|-------------------------------------------------|
|------------------------|-------------------------------------9\8---------|
|-6-----7---6/-10-9-7-6--|-6-----7\6---9\7---------------7\6---7\6---------|
|-44444454444/-8--7-5-4--|-4-4-4-5\4-4-7\5-4-8\7-5-4-4-4-5\4-0-----0-8-7-5-|
|----------------0-0-6-5-|-------------------------------------------------|

 Riff J
   Gtr. 1                                     (1x)
|-------------------------------------------------||
|-------------------------------------------------||
|-------------------------------------------------||
|-6-----7\6---9\7---------------7\6---------------||
|-4-4-4-5\4-4-7\5-4-8\7-5-4-4-4-5\4-0-------3h5---||
|-------------------------------------8p7-0-3h5-0-||


 Riff I 1x

 Riff J 1x


 Riff K
   Gtr. 1                             (1x)
||----------------------------------------||
||----------------------------------------||
||----------------------------------------||
||----------------------------------------||
||-0-2~-0-2h3p0-------0-2~-0-2h3-0-3~--5~-||
||-0-2~-0-2h3p0-------0-2~-0-2h3-0-5~--7~-||



 Riff L
   Gtr. 1
||---------------------------------------------------|
||---------------------------------------------------|
||---------------------------------------------------|
||---------------------------------------------------|
||-\0-0---0-0------555555553/555555588557755-8-5-7-3-|
||-\0-0---0-0----------------------------------------|

 Riff L (Cont.)
   Gtr. 1                                     (2x)
||-------------------------------------------------||
||------------------------------------------------.||
||---------------------------------7---5---8---7~--||
||----------------------------------000-000-000---.||
||-0-0---0-0------555555553/5555~------------------||
||-0-0---0-0---------------------------------------||



 Riff M
   Gtr. 1                                                      (4x)
||-----------------------------------------------------------------||
||----------------------------------------------------------------.||
||-----------------------------------------------------------------||
||------------------------------------------------------------7\6-.||
||---------5-------4---8\7/8---7\4~-----5---4-8\7/8---7---6---5\4--||
||-0-0-0-0---0-0-0---0-------0------0-0---0---------0---0---0------||



 Riff N
   Gtr. 1
||----------------------------------------------------------|
||----------------------------------------------------------|
||----------------------------------------------------------|
||----------------------------------------------------------|
||-0~--------8---7---6---5\4-0--0-1~--------8---7---6---5\4-|
||-0~----------0---0---0-----0--0-1~----------0---0---0-----|

 Riff N (Cont.)
   Gtr. 1                                           (1x)
|------------------------------------------------------||
|------------------------------------------------------||
|------------------------------------------------------||
|------------------------------------------------------||
|-0~--------8---7---6---5\4-0--0-1~-----5-5-5-5-4---4\-||
|-0~----------0---0---0-----0--0-1~-----5-5-5-5-4---4\-||



 Riff E1
   Gtr. 1
||-----------------------------------------------------------------------|
||-----------------------------------------------------------------------|
||-----------------------------------------------------------------------|
||-7----6----5----------3----2---------------7----6----------------------|
||-5555545555355555555551555505555-------5---55555455553h555555555555555-|
||--------------------------------6-66666-66-----------------------------|
                                    |_||___|
 Riff E1 Cont,)
   Gtr. 1           (2x)
|-----------------------||
|----------------------.||
|-----------------------||
|------------7-6-7-6---.||
|-4-444-4-444-4-4-4-4p0-||
|-----------------------||


 Riff F1                    ________________  _______________________
   Gtr. 1                  |           1,3.  |                  2,4.
||------------------------|-----------------|-----------------------||
||------------------------|----------------.|----------------------.||
||--------------8---------|-----------------|-----------------------||
||-5555556p55555-5555556\-|----------------.|--------------------4-.||
||---------------------6\-|-5--6--3--1-1-3--|------------------4----||
||------------------------|-5--6--3--1-1-3--|-5-555-5-555-4-444-4---||


End.

  Visit MetalTabs.com for more metal tablature

bottom separator

Contact Us | Privacy Policy | Disclaimer | Legal Notice
Copyright © 2001-2014 MetalTabs.com. All Rights Reserved.