top separator

Home

Forum

What's New

Submit a Tab

FAQ

Links

Contact Us

Link to Us

MetalTabs.com logo

Bands

0-9

A

B

C

D

E

F

G

H

I

J

K

L

M

N

O

P

Q

R

S

T

U

V

W

X

Y

Z

Search

What

Where
 

Dying Fetus - "We Are Your Enemy" Bass Tab

Plain Text Version
More Dying Fetus Tabs

Hits: 6557
Rated: 4.60 out of 5 (15 votes)
Updated: 2004-12-09 08:38:27

 

By:

younguitarist

sendpm.gif

email.gif

Important note
This tab is available online because we obtained explicit permission from Dying Fetus or their label.


#----------------------------------PLEASE NOTE---------------------------------#
#This file is the author's own work and represents their interpretation of the #
#song. You may only use this file for private study, scholarship, or research. #
#Unless specified otherwise, this is NOT an official tab from the band members.#
#------------------------------------------------------------------------------#

  Visit MetalTabs.com for more metal tablature
  
Artist: Dying Fetus
Album: Killing On Adrenaline
Song: We Are You Enemy
Transcribed by:Alvaro Ramirez
Email me for any comments or corrections:lazyguitarist@gmail.com
Tune Bass to C#
============================================================
This is my first bass tab but it sounds accurate.
============================================================


Riff 1
|-----------------|
|-4-4-2-2-0-0-----|
|-------------1-1-|8x
|-----------------|


Riff 2
|---------------2-0-----------------------------------|
|-------------------4-5-------------------------------|
|-------------------------------------2-5-2-5-1-4-1-4-|
|-3-000-222-333---------3-000-222-333-----------------|


Riff 3
|---------------2-0--------------------------|
|-------------------4-5----------------------|
|--------------------------------------------|
|-3-000-222-333---------55-55-55-55-66-66-66-|

Repeat
Riff 2
Riff 3

Riff 4
|---------------------------------------|
|---------------------------------------|
|--..guitar-playing..---2-5-2-5-1-4-1-4-|
|---------------------------------------|

Riff 5
|------------------------------------------------------|
|------------------------------------------------------|
|--..guitar-playing..----------------------------------|
|---------------------5-5-5-5-5-5-5-5--6-6-6-6-6-6-6-6-|


Riff 6
|-----------------------------------------------------|
|-----------------------------------------------------|
|-------------------------------------2-5-2-5-1-4-1-4-|
|-33-00-22-33-55-33-22-33-0-0-000-000-----------------|


Riff 7
|---------------------------------------------------------|
|---------------------------------------------------------|
|---------------------------------------------------------|
|-33-00-22-33-55-33-22-33-5-5-5-5-5-5-5-5-6-6-6-6-6-6-6-6-|

Repeat
Riff 6
Riff 7
Riff 6
Riff 7

Riff 8 A
|-----------------------------------------|
|-----------------------------------------|
|-----------------------------------------|
|-0-0-5-0-3-5-0-0-6-0-0-5-0-0-5-0-3-6-4-3-|

Riff 8 B
|-----------------------------------------|
|-----------------------------------------|
|-----------------------------------------|
|-6666555-0-0-5-0-3-5-0-0-6-0-0-6-5-6-5---|

Riff 8 C
|-------------------------------------------------|
|-------------------------------------------------|
|-------------------------------------------------|
|-0-0-5-0-3-5-0-0-6-0-0-5-0-0-5-0-3-6-4-3-6666555-|

Riff 8 D
|--------------------------------------------------|
|--------------------------------------------------|
|--------------------------------------------------|
|-0-0-5-0-3-5-0-0-6-0-0-5-0-0-5-0-3-6-4-3-6-5-6-8--|

Riff 9
|----------------------------------------------------------|
|----------------------------------------------------------|
|----------------------------------------------------------|4x
|-5-0-0-4-0-0-3-4-3-2-3-2-1-2--5-0-0-4-0-0-2-2-2-2-2-2-2-3-|

Riff 10
|---------------------------------|
|---------------------------------|
|---------------------------------|
|-2-0-0-2-3-0-0-0-0-4-3-2-3-2-3-2-|

Riff 11
|-----------------------------|
|-----------------------------|
|-----------------------------|
|-2-0-0-2-3-0-0-0-0-4-3-2-3-2-|

Repeat
Riff 10
Riff 11
Riff 10
Riff 11
Riff 10
Riff 11

Riff 12
|-----------------------------------5-6-8-9-11-12-|
|-----------------------------5-6-8---------------|
|-----------------------5-6-8---------------------|2x
|-566-555-566-555-5-6-8---------------------------|

Riff 13
|------------------------------------5-6-8-9-11-12-|
|------------------------------5-6-8---------------|
|------------------------5-6-8---------------------|2x
|-6666555566663333-5-6-8---------------------------|

Riff 14
|-------------------5-6-8-9-11-12-|
|-------------5-6-8---------------|
|-------5-6-8---------------------|3x
|-5-6-8---------------------------|

Riff 15
|----------------------------------------|
|----------------------------------------|
|----------------------------------------|8x
|-5-000000-3-000000-333333222222000000-6-|

Riff 16 under the solo
|-------------------------|
|-------------------------|
|-------------------------|
|-5---6-5---6-5---6-5---0-|

Riff 18
|----------------------------------------------|
|----------------------------------------------|
|----------------------------------------------|2x
|-6-5-000000000000-6-5-0-0-0-0-0-0-0-0-0-0-0-0-|

Riff 19
|-----------------------------|
|-----------------------------|
|-----------------------------|4x
|-6-5-0-0-0-0-0-0--0-0-0-1-0--|

Repeat
Riff 18 2x
Riff 19 4x
Riff 14
Riff 2
Riff 3
Riff 2
Riff 3

The End..

  Visit MetalTabs.com for more metal tablature

bottom separator

Contact Us | Privacy Policy | Disclaimer | Legal Notice
Copyright © 2001-2014 MetalTabs.com. All Rights Reserved.