top separator

Home

Forum

What's New

Submit a Tab

FAQ

Links

Contact Us

Link to Us

MuSpy.com

MetalTabs.com logo

Bands

0-9

A

B

C

D

E

F

G

H

I

J

K

L

M

N

O

P

Q

R

S

T

U

V

W

X

Y

Z

Search

What

Where
 

Altar (NL) - "Ego Art" Guitar Tab

Plain Text Version
More Altar (NL) Tabs

Hits: 2670
Updated: 2004-12-05 16:49:45

 

By:

sendpm.gif

email.gif

Important note
This tab is available online because we obtained explicit permission from Altar (NL) or their label.


#----------------------------------PLEASE NOTE---------------------------------#
#This file is the author's own work and represents their interpretation of the #
#song. You may only use this file for private study, scholarship, or research. #
#Unless specified otherwise, this is NOT an official tab from the band members.#
#------------------------------------------------------------------------------#

  Visit MetalTabs.com for more metal tablature
  
Band: Altar
Album: Ego Art
Song: Ego Art

Copyright (c)  Displeased Records 1996
Version 1.0 - December 4th, 2004

Transcribed By: Jonathan Erez
Email:          deicide_18@hotmail.com

Hi! This is my first tab, I'm not sure if it's very correct.
Please email me if you find any mistakes so I can correct them.



.  - palm mute           /  - slide up to
\  - slide down to       ~  - vibrato
h  - hammer on           b  - Bend
p  - pull off            Suffixes for bend
t  - tap                 f  - full bend    h - half bend
ph - pinched harmonic    q  - quarter bend t - tap bend
*  - see comment         ^  - Hold bend    r release bend
x  - Stuccatto           ~  - vibrato bend
,  - slight palm mute    () - ghost note, sustained note
"  - tremolo note        <> - Trill




Riff 1

|-----------------------------|
|-----------------------------|
|-8-888-8-888-8-888-8-888-888-|
|-----------------------------|
|-----------------------------|
|-----------------------------|
  . ... . ... . ... . ... ...


Riff 2

|-----------------------------|
|-----------------------------|
|-----------------------------|
|-----------------------------|
|-----------------------------|
|-0-000-0-000-0-000-0-000-000-|
  . ... . ... . ... . ... ...


Riff 3

|---------------------------------|
|---------------------------------|
|---------------------------------|
|-----2---1-----2---1-------------|
|-----2---1-----2---1-----2/3-2\1-|
|-0-0---0---0-0---0---0-0-2/3-2\1-|
  . .   .   . .   .   . .

Bridge
|-------------|
|-------------|
|-------------|
|-------------|
|-0-0-2-3-0-0-|


Riff 4 (verse)

|---------------------------------|
|---------------------------------|
|---------------------------------|
|---------------------------------|
|-2---2-----2---2-5---7---8---7-5-|
|-0-000-000-0-000-3-005-006-005-3-|
    ..  ...   ..    ..  ..  ..


Riff 5 (pre-chorus) (I'm not sure about this one)

|-----------------------------------------------|
|-----------------------------------------------|
|-----------------------------------------------|
|-----------------------------------------------|
|---------3-----------3-----------3-----------3-|
|-000-0-0-1---000-0-0-1---000-0-0-1---000-0-0-1-|
  ... . .     ... . .     ... . .     ... . .

|-------------------------------------------------------|
|-------------------------------------------------------|
|-------------------------------------------------------|
|-------------------------------------------------------|
|-------------5---------------5-----------2-----------2-|
|-000-0-0-000-3---000-0-0-000-3---000-0-0-0---000-0-0-0-|
  ... . . ...     ... . . ...     ... . . .   ... . . .


Riff 6 (chorus)

|------------------------------------------------------------------|
|------------------------------------------------------------------|
|------------------------------------------------------------------|
|------------------------------------------------------------------|
|-5-----7-8---3---5-----7-8---3---5-----7-8---3---5-----7-8---3----|
|-3-33335-6-661-113-33335-6-661-113-33335-6-661-113-33335-6-661-11-|
    ....    ..  ..  ....    ..  ..  ....    ..  ..  ....    ..  ..


|---------------------------------|
|---------------------------------|
|---------------------------------|
|---------------------------------|
|-5-5---4-5-5---7-8-8---8-3-3---3-|
|-3-3---2-3-3---5-6-6---6-1-1---1-|


Riff 7

|----------------------------|
|----------------------------|
|----------------------------|
|-9-8-9----------------------|
|-7-6-7----------------------|
|---------333222666555888777-|
          ..................


Riff 8

|----------------------------------|
|----------------------------------|
|----------------------------------|
|----------------------------9-8-9-|
|----5--4-------8--7---10-9--7-6-7-|
|-0--3--2----0--6--5---8--7--------|
  .          .


On the 2 last times:

|---------------------------------|
|---------------------------------|
|---------------------------------|
|---------------------------9-8-9-|
|----5--4------8--7---10-9--7-6-7-|
|-0--3--2--00006--5---8--7--------|
  .        ....


Riff 9

|----------------------------------------------------------------|
|----------------------------------------------------------------|
|----------------------------------------------------------------|
|----------------------------------------------------------------|
|----2---2---2---2------2---2---2---2------2---2---2---2-5-7-8-7-|
|-3b-0-0-0-0-0-0-0-0-3b-0-0-0-0-0-0-0-0-3b-0-0-0-0-0-0-0-3-5-6-5-|
       .   .   .          .   .   .          .   .   .


END

  Visit MetalTabs.com for more metal tablature

bottom separator

Contact Us | Privacy Policy | Disclaimer | Legal Notice
Copyright © 2001-2014 MetalTabs.com. All Rights Reserved.