top separator

Home

Forum

What's New

Submit a Tab

FAQ

Links

Contact Us

Link to Us

MetalTabs.com logo

Bands

0-9

A

B

C

D

E

F

G

H

I

J

K

L

M

N

O

P

Q

R

S

T

U

V

W

X

Y

Z

Search

What

Where
 

Suffocation - "Deceit" Guitar Tab

Plain Text Version
More Suffocation Tabs

Hits: 8925
Rated: 4.00 out of 5 (8 votes)
Updated: 2005-02-08 05:02:28

 

By:

Stachio

sendpm.gif

email.gif

Important note
This tab is available online because we obtained explicit permission from Suffocation or their label.


#----------------------------------PLEASE NOTE---------------------------------#
#This file is the author's own work and represents their interpretation of the #
#song. You may only use this file for private study, scholarship, or research. #
#Unless specified otherwise, this is NOT an official tab from the band members.#
#------------------------------------------------------------------------------#

  Visit MetalTabs.com for more metal tablature
  
DECEIT
                           As recorded by Suffocation
                       (From the 2004 Album SOULS TO DENY)

Words by Frank Mullen Music by Suffocation
Arranged by Suffocation
Transcribed by Gael Pirlot (GaelPirlot@gmail.com)

Gtr I (Db Gb B E Ab Db) - Terrance Hobbs
Gtr II (Db Gb B E Ab Db) - Guy Marchais
Gtr III (Db Gb B E Ab Db) - Lead

   Intro
    Q=240
   4/4
    Gtrs I, II
||------------|-----------|-----------|-----------|
||o-----------|-----------|-----------|-----------|
||------------|-----------|-----------|-----------|
||--3----3----|-4----3----|-3----5----|-5----4----|
||o-3----3----|-3----3----|-3----3----|-3----3----|
||------------|-----------|-----------|-----------|


                                            1.,2.,3.
  Gtrs I, II
                PM----------|                 PM----------|
                                                             4x
|-----------|-----------------|-----------|------------------||
|-----------|-----------------|-----------|-----------------o||
|-----------|-----------------|-----------|------------------||
|-2----2----|-3---------------|-2----2----|-3----------------||
|-2----2----|-2---------------|-2----2----|-2---------------o||
|-----------|---0-2-0-1-0-3-1-|-----------|---0-2-0-1-0-3-1--||


  4.
  Gtrs I, II
|--------|
|--------|
|--------|
|-3------|
|-2------|
|--------|


 Pre-Verse
 2/4         4/4
  Gtrs I, II
        PM|
|-----------|---------------------------------|
|-----------|---------------------------------|
|-----------|---------------------------------|
|-----------|-----------------7-7-7-7-7-7-7-7-|
|-7h8p7-----|-7-7-7-7-7-7-7-7-----------------|
|-------4-5-|---------------------------------|


                                                                    PM|
|-----------------------------------------|-----------|--------------------|
|-----------------------------------------|-----------|--------------------|
|-----------------------------------------|-----------|-5-5----------------|
|-10-10-10-10-10-10-10-10-7-7-7-7-7-7-7-7-|-9---------|-7-7----------------|
|-----------------------------------------|-7----7----|-------7h8p7--------|
|-----------------------------------------|------5----|-------------4-5----|


  Gtr I
|---------------------------------|
|---------------------------------|
|---------------------------------|
|---------------------------------|
|-7-7-7-7-7-7-7-7-7-7-7-7-7-7-7-7-|
|---------------------------------|
|
| Gtr II
|---------------------------------|
|---------------------------------|
|---------------------------------|
|-----------------7-7-7-7-7-7-7-7-|
|-7-7-7-7-7-7-7-7-----------------|
|---------------------------------|


                                                                    PM|
|-----------------------------------------|-----------|-------------------|
|-----------------------------------------|-----------|-------------------|
|-----------------------------------------|-----------|-5-5---------------|
|-10-10-10-10-10-10-10-10-7-7-7-7-7-7-7-7-|-9---------|-7-7---------------|
|-----------------------------------------|-7----7----|-------7h8p7-------|
|--8--8--8--8--8--8--8--8-5-5-5-5-5-5-5-5-|------5----|-------------4-5---|
|
|                                                                   PM|
|-----------------------------------------|-----------|-------------------|
|-----------------------------------------|-----------|-------------------|
|-----------------------------------------|-----------|-5-5---------------|
|-10-10-10-10-10-10-10-10-7-7-7-7-7-7-7-7-|-9---------|-7-7---------------|
|-----------------------------------------|-7----7----|-------7h8p7-------|
|-----------------------------------------|------5----|-------------4-5---|


  Gtr I
                           PM--|
|------------|-----------|------------------------|----------------------|
|------------|-----------|------------------------|----------------------|
|------------|-----------|------------------------|----------------------|
|-10----6----|-7----9----|--------6-6-6-6-7-7-7-7-|-9-9-9-9-9-9-9-9-6----|
|--8----6----|-5----7----|-3-3-2------------------|-----------------7----|
|--8----4----|-5----7----|-1-1-0------------------|----------------------|
|
| Gtr II
|                          PM--|
|------------|-----------|------------------------|----------------------|
|------------|-----------|------------------------|----------------------|
|------------|-----------|------------------------|----------------------|
|-10---------|-7----9----|--------6-6-6-6-7-7-7-7-|-9-9-9-9-9-9-9-9-6----|
|--8----6----|-5----7----|-3-3-2------------------|-----------------7----|
|-------4----|-----------|-1-1-0------------------|----------------------|


 Verse A
  Gtrs I, II
|---------------------------------|
|---------------------------------|
|---------------------------------|
|---------------------------------|
|---------------------------------|
|-5-5-5-5-5-5-5-5-8-8-8-8-8-8-8-8-|


                                    PM--|         PM------|
|---------------------------------|-------------|----------------|
|---------------------------------|-------------|----------------|
|---------------------------------|-------------|----------------|
|---------------------------------|--------5----|-----------5----|
|-7-7-7-7-7-7-7-7-----------------|--------3----|-----------3----|
|-----------------8-8-8-8-8-8-8-8-|-4-5-5-------|-4-5-5-5-5------|


  Gtr I
|---------------------------------|
|---------------------------------|
|---------------------------------|
|---------------------------------|
|---------------------------------|
|-5-5-5-5-5-5-5-5-8-8-8-8-8-8-8-8-|
|
| Gtr II
|---------------------------------|
|---------------------------------|
|---------------------------------|
|---------------------------------|
|---------------------------------|
|-5-5-5-5-5-5-5-5-8-8-8-8-8-8-8-8-|


                                            PM--|         PM------|
|-----------------------------------------|-------------|----------------|
|-----------------------------------------|-------------|----------------|
|-----------------------------------------|-------------|----------------|
|-----------------------------------------|--------5----|-----------5----|
|-10-10-10-10-10-10-10-10-7-7-7-7-7-7-7-7-|--------3----|-----------3----|
|-----------------------------------------|-4-5-5-------|-4-5-5-5-5------|
|
|                                           PM--|         PM------|
|-----------------------------------------|-------------|----------------|
|-----------------------------------------|-------------|----------------|
|-----------------------------------------|-------------|----------------|
|-----------------------------------------|--------5----|-----------5----|
|--7--7--7--7--7--7--7--7-----------------|--------3----|-----------3----|
|-------------------------8-8-8-8-8-8-8-8-|-4-5-5-------|-4-5-5-5-5------|


  Gtrs I, II
|---------------------------------|
|---------------------------------|
|---------------------------------|
|---------------------------------|
|---------------------------------|
|-5-5-5-5-5-5-5-5-8-8-8-8-8-8-8-8-|


                                    PM--|         PM------|
|---------------------------------|-------------|----------------|
|---------------------------------|-------------|----------------|
|---------------------------------|-------------|----------------|
|---------------------------------|--------5----|-----------5----|
|-7-7-7-7-7-7-7-7-----------------|--------3----|-----------3----|
|-----------------8-8-8-8-8-8-8-8-|-4-5-5-------|-4-5-5-5-5------|


  Gtrs I, II
  PM|
|---------------------|---------------------------------|
|---------------------|---------------------------------|
|---------------------|---------------------------------|
|---------------------|-----------------7-7-------------|
|-8-7-3-3-------------|-5-5-----------------8-8-8-8-8-8-|
|-6-5-----4-4-4-4-4-4-|-----7-7-7-7-7-7-----------------|


                       5/4
                           PM-------|
|---------------------|----------------|
|---------------------|----------------|
|---------------------|----------------|
|-6-6-------------6---|-6--4-5------4--|
|-----7-7-7-7-7-7-7---|-7--2-3-7-6--2--|
|---------------------|--------5-4--2--|


 4/4
  Gtrs I, II
|-------------------------|---------------------------------|
|-------------------------|---------------------------------|
|-------------------------|---------------------------------|
|-------------------------|---------------------------------|
|-------------------------|-7-7-7-7-7-7-7-7-----------------|
|---------8-8-8-8-8-8-8-8-|-----------------8-8-8-8-8-8-8-8-|


  PM--|         PM------|
|-------------|----------------|
|-------------|----------------|
|-------------|----------------|
|--------5----|-----------5----|
|--------3----|-----------3----|
|-4-5-5-------|-4-5-5-5-5------|


  Gtr I
|---------------------------------|
|---------------------------------|
|---------------------------------|
|---------------------------------|
|---------------------------------|
|-5-5-5-5-5-5-5-5-8-8-8-8-8-8-8-8-|
|
| Gtr II
|---------------------------------|
|---------------------------------|
|---------------------------------|
|---------------------------------|
|---------------------------------|
|-5-5-5-5-5-5-5-5-8-8-8-8-8-8-8-8-|


                                            PM--|         PM------|
|-----------------------------------------|-------------|----------------|
|-----------------------------------------|-------------|----------------|
|-----------------------------------------|-------------|----------------|
|-----------------------------------------|--------5----|-----------5----|
|-10-10-10-10-10-10-10-10-7-7-7-7-7-7-7-7-|--------3----|-----------3----|
|-----------------------------------------|-4-5-5-------|-4-5-5-5-5------|
|
|                                           PM--|         PM------|
|-----------------------------------------|-------------|----------------|
|-----------------------------------------|-------------|----------------|
|-----------------------------------------|-------------|----------------|
|-----------------------------------------|--------5----|-----------5----|
|--7--7--7--7--7--7--7--7-----------------|--------3----|-----------3----|
|-------------------------8-8-8-8-8-8-8-8-|-4-5-5-------|-4-5-5-5-5------|


  Gtrs I, II
|---------------------------------|
|---------------------------------|
|---------------------------------|
|---------------------------------|
|---------------------------------|
|-5-5-5-5-5-5-5-5-8-8-8-8-8-8-8-8-|


                                    PM--|         PM------|
|---------------------------------|-------------|----------------|
|---------------------------------|-------------|----------------|
|---------------------------------|-------------|----------------|
|---------------------------------|--------5----|-----------5----|
|-7-7-7-7-7-7-7-7-----------------|--------3----|-----------3----|
|-----------------8-8-8-8-8-8-8-8-|-4-5-5-------|-4-5-5-5-5------|


  Gtrs I, II
  PM-|
|-----------------------|---------------------------------|
|-----------------------|---------------------------------|
|-----------------------|---------------------------------|
|-----------------------|-----------------7-7-------------|
|-8--7--3-3-------------|-5-5-----------------8-8-8-8-8-8-|
|-6--5------4-4-4-4-4-4-|-----7-7-7-7-7-7-----------------|


  PM------|            PM|
|--------------|-----------------|
|--------------|-----------------|
|--------------|-----------------|
|-6---9---7----|-----------9-----|
|---7---7------|-7h8p7-----7-----|
|--------------|-------4-5-------|


 Pre-Verse
  Gtr I
                                                                     PM|
|-----------------------------------------|------------|-----------------|
|-----------------------------------------|------------|-----------------|
|-9-9-9-9-9-9-9-9-------------------------|------------|-5-5-------------|
|-----------------10-10-10-10-10-10-10-10-|-9-9--------|-7-7-------------|
|-----------------------------------------|-7-7---7----|-------7h8p7-----|
|-----------------------------------------|-------5----|-------------4-5-|
|
| Gtr II
|                                                                    PM|
|-----------------------------------------|------------|-----------------|
|-----------------------------------------|------------|-----------------|
|-5-5-5-5-5-5-5-5-------------------------|------------|-5-5-------------|
|------------------7--7--7--7--7--7--7--7-|-9-9--------|-7-7-------------|
|-----------------------------------------|-7-7---7----|-------7h8p7-----|
|-----------------------------------------|-------5----|-------------4-5-|


  Gtr I
|---------------------------------|
|---------------------------------|
|---------------------------------|
|---------------------------------|
|-7-7-7-7-7-7-7-7-7-7-7-7-7-7-7-7-|
|---------------------------------|
|
| Gtr II
|---------------------------------|
|---------------------------------|
|---------------------------------|
|-----------------7-7-7-7-7-7-7-7-|
|-7-7-7-7-7-7-7-7-----------------|
|---------------------------------|


                                                                    PM|
|-----------------------------------------|-----------|-------------------|
|-----------------------------------------|-----------|-------------------|
|-----------------------------------------|-----------|-5-5---------------|
|-10-10-10-10-10-10-10-10-7-7-7-7-7-7-7-7-|-9---------|-7-7---------------|
|-----------------------------------------|-7----7----|-------7h8p7-------|
|--8--8--8--8--8--8--8--8-5-5-5-5-5-5-5-5-|------5----|-------------4-5---|
|
|                                                                   PM|
|-----------------------------------------|-----------|-------------------|
|-----------------------------------------|-----------|-------------------|
|-----------------------------------------|-----------|-5-5---------------|
|-10-10-10-10-10-10-10-10-7-7-7-7-7-7-7-7-|-9---------|-7-7---------------|
|-----------------------------------------|-7----7----|-------7h8p7-------|
|-----------------------------------------|------5----|-------------4-5---|


  Gtr I
                           PM-|
|------------|-----------|-----------------------|----------------------|
|------------|-----------|-----------------------|----------------------|
|------------|-----------|-----------------------|----------------------|
|-10----6----|-7----9----|-------6-6-6-6-7-7-7-7-|-9-9-9-9-9-9-9-9-6----|
|--8----6----|-5----7----|-3--2------------------|-----------------7----|
|--8----4----|-5----7----|-1--0------------------|----------------------|
|
| Gtr II
|                          PM-|
|------------|-----------|-----------------------|----------------------|
|------------|-----------|-----------------------|----------------------|
|------------|-----------|-----------------------|----------------------|
|-10---------|-7----9----|-------6-6-6-6-7-7-7-7-|-9-9-9-9-9-9-9-9-6----|
|--8----6----|-5----7----|-3--2------------------|-----------------7----|
|-------4----|-----------|-1--0------------------|----------------------|


 Verse B
  Gtrs I, II
|---------------------------------|
|---------------------------------|
|---------------------------------|
|---------------------------------|
|---------------------------------|
|-5-5-5-5-5-5-5-5-8-8-8-8-8-8-8-8-|


                                    PM--|         PM------|
|---------------------------------|-------------|----------------|
|---------------------------------|-------------|----------------|
|---------------------------------|-------------|----------------|
|---------------------------------|--------5----|-----------5----|
|-7-7-7-7-7-7-7-7-----------------|--------3----|-----------3----|
|-----------------8-8-8-8-8-8-8-8-|-4-5-5-------|-4-5-5-5-5------|


  Gtr I
|---------------------------------|
|---------------------------------|
|---------------------------------|
|---------------------------------|
|---------------------------------|
|-5-5-5-5-5-5-5-5-8-8-8-8-8-8-8-8-|
|
| Gtr II
|---------------------------------|
|---------------------------------|
|---------------------------------|
|---------------------------------|
|---------------------------------|
|-5-5-5-5-5-5-5-5-8-8-8-8-8-8-8-8-|


                                            PM--|         PM------|
|-----------------------------------------|-------------|----------------|
|-----------------------------------------|-------------|----------------|
|-----------------------------------------|-------------|----------------|
|-----------------------------------------|--------5----|-----------5----|
|-10-10-10-10-10-10-10-10-7-7-7-7-7-7-7-7-|--------3----|-----------3----|
|-----------------------------------------|-4-5-5-------|-4-5-5-5-5------|
|
|                                           PM--|         PM------|
|-----------------------------------------|-------------|----------------|
|-----------------------------------------|-------------|----------------|
|-----------------------------------------|-------------|----------------|
|-----------------------------------------|--------5----|-----------5----|
|--7--7--7--7--7--7--7--7-----------------|--------3----|-----------3----|
|-------------------------8-8-8-8-8-8-8-8-|-4-5-5-------|-4-5-5-5-5------|


  Gtrs I, II
|---------------------------------|
|---------------------------------|
|---------------------------------|
|---------------------------------|
|---------------------------------|
|-5-5-5-5-5-5-5-5-8-8-8-8-8-8-8-8-|


                                    PM--|         PM------|
|---------------------------------|-------------|----------------|
|---------------------------------|-------------|----------------|
|---------------------------------|-------------|----------------|
|---------------------------------|--------5----|-----------5----|
|-7-7-7-7-7-7-7-7-----------------|--------3----|-----------3----|
|-----------------8-8-8-8-8-8-8-8-|-4-5-5-------|-4-5-5-5-5------|


  Gtrs I, II
  PM-|                                                      PM------|
|-----------------------|---------------------------------|---------------|
|-----------------------|---------------------------------|---------------|
|-----------------------|---------------------------------|---------------|
|-----------------------|-----------------7-7-------------|-6---9---7-----|
|-8--7--3-3-------------|-5-5-----------------8-8-8-8-8-8-|---7---7-------|
|-6--5------4-4-4-4-4-4-|-----7-7-7-7-7-7-----------------|---------------|


 Verse C
  Q=180
  Gtrs I, II
  PM---------------------------------------------------
|-----------------------|-----------------------------|
|-----------------------|-----------------------------|
|-----------------------|-----------------------------|
|-----5-4---------------|-----------------------------|
|-7-6-3-2-7-7-7--6-6-6--|-5-5-5--6-6-6--7-7-7--6-6-6--|
|-5-4-----5-5-5--4-4-4--|-3-3-3--4-4-4--5-5-5--4-4-4--|


 -------|
|-----------------------------------------------|
|-----------------------------------------------|
|-----------------------------------------------|
|---------6-6-6-6-6-6---------------------------|
|-5-5-5-5-------------5-5-5-5-5-5-5-5-5-5-5-5---|
|-3-3-3-3---------------------------------------|


 6/4
  Gtrs I, II
|--------------------------------------------|
|--------------------------------------------|
|--------------------------------------------|
|--------------------------------------------|
|-7-7-7-7-7-7-10-10-10-10-10-10-9-9-9-9-9-9--|
|--------------------------------------------|


|---------------------------------------|
|---------------------------------------|
|---------------------------------------|
|-7-7-7-7-7-7---------------------------|
|-------------6-6-6-6-6-6-6-6-6-6-6-6---|
|---------------------------------------|


  Gtr I
  PM---------|
|---------------------------------------------------------|
|---------------------------------------------------------|
|---------------------------------------------------------|
|---------------10-10-10-10-10-10-------------------------|
|-9-10-9-7-9-10-------------------9-9-9-9-9-9-9-9-9-9-9-9-|
|-7--8-7-5-7--8-------------------------------------------|
|
| Gtr II
| PM---------|
|---------------------------------------------------------|
|---------------------------------------------------------|
|---------------------------------------------------------|
|---------------------------------------------------------|
|-9-10-9-7-9-10-------------------------------------------|
|-7--8-7-5-7--8-------------------------------------------|


 4/4
  Gtr I
  PM---------------------------------------------------
|-----------------------|-----------------------------|
|-----------------------|-----------------------------|
|-----------------------|-----------------------------|
|-----5-4---------------|-----------------------------|
|-7-6-3-2-3-3-3--2-2-2--|-1-1-1--2-2-2--3-3-3--2-2-2--|
|-5-4-------------------|-----------------------------|
|
| Gtr II
| PM---------------------------------------------------
|-----------------------|-----------------------------|
|-----------------------|-----------------------------|
|-----------------------|-----------------------------|
|-----5-4---------------|-----------------------------|
|-7-6-3-2-7-7-7--6-6-6--|-5-5-5--6-6-6--7-7-7--6-6-6--|
|-5-4-----5-5-5--4-4-4--|-3-3-3--4-4-4--5-5-5--4-4-4--|


 -------|
|----------------------------------------------|
|----------------------------------------------|
|----------------------------------------------|
|---------3-3-3-3-3-3--------------------------|
|-1-1-1-1-------------2-2-2-2-2-2-2-2-2-2-2-2--|
|----------------------------------------------|
|
|-------|
|----------------------------------------------|
|----------------------------------------------|
|----------------------------------------------|
|---------6-6-6-6-6-6--------------------------|
|-5-5-5-5-------------5-5-5-5-5-5-5-5-5-5-5-5--|
|-3-3-3-3--------------------------------------|


 6/4
  Gtrs I, II
|--------------------------------------------|
|--------------------------------------------|
|--------------------------------------------|
|--------------------------------------------|
|-7-7-7-7-7-7-10-10-10-10-10-10-9-9-9-9-9-9--|
|--------------------------------------------|


|---------------------------------------|
|---------------------------------------|
|---------------------------------------|
|-7-7-7-7-7-7---------------------------|
|-------------6-6-6-6-6-6-6-6-6-6-6-6---|
|---------------------------------------|


  Gtrs I, II
  PM---------|
|---------------------------------------------------------|
|---------------------------------------------------------|
|---------------------------------------------------------|
|---------------10-10-10-10-10-10-------------------------|
|-9-10-9-7-9-10-------------------9-9-9-9-9-9-9-9-9-9-9-9-|
|-7--8-7-5-7--8-------------------------------------------|


 4/4
  Gtrs I, II
  PM---------------------------------------------------
|-----------------------|-----------------------------|
|-----------------------|-----------------------------|
|-----------------------|-----------------------------|
|-----5-4---------------|-----------------------------|
|-7-6-3-2-7-7-7--6-6-6--|-5-5-5--6-6-6--7-7-7--6-6-6--|
|-5-4-----5-5-5--4-4-4--|-3-3-3--4-4-4--5-5-5--4-4-4--|


 -------|
|----------------------------------------------|
|----------------------------------------------|
|----------------------------------------------|
|---------6-6-6-6-6-6--------------------------|
|-5-5-5-5-------------5-5-5-5-5-5-5-5-5-5-5-5--|
|-3-3-3-3--------------------------------------|


 6/4
  Gtrs I, II
|--------------------------------------------|
|--------------------------------------------|
|--------------------------------------------|
|--------------------------------------------|
|-7-7-7-7-7-7-10-10-10-10-10-10-9-9-9-9-9-9--|
|--------------------------------------------|


|---------------------------------------|
|---------------------------------------|
|---------------------------------------|
|-7-7-7-7-7-7---------------------------|
|-------------6-6-6-6-6-6-6-6-6-6-6-6---|
|---------------------------------------|


  Gtr I
  PM---------|
|---------------------------------------------------------------------|
|---------------------------------------------------------------------|
|---------------------------------------------------------------------|
|---------------13-13-13-13-13-13-------------------------------------|
|-9-10-9-7-9-10-------------------12-12-12-12-12-12-12-12-12-12-12-12-|
|-7--8-7-5-7--8-------------------------------------------------------|
|
| Gtr II
| PM---------|
|---------------------------------------------------------------------|
|---------------------------------------------------------------------|
|---------------------------------------------------------------------|
|---------------10-10-10-10-10-10-------------------------------------|
|-9-10-9-7-9-10--------------------9--9--9--9--9--9--9--9--9--9--9--9-|
|-7--8-7-5-7--8-------------------------------------------------------|


 4/4
  Gtr I
  PM---------------------------------------------------
|-----------------------|-----------------------------|
|-----------------------|-----------------------------|
|-----------------------|-----------------------------|
|-----5-4---------------|-----------------------------|
|-7-6-3-2-3-3-3--2-2-2--|-1-1-1--2-2-2--3-3-3--2-2-2--|
|-5-4-------------------|-----------------------------|
|
| Gtr II
| PM---------------------------------------------------
|-----------------------|-----------------------------|
|-----------------------|-----------------------------|
|-----------------------|-----------------------------|
|-----5-4---------------|-----------------------------|
|-7-6-3-2-7-7-7--6-6-6--|-5-5-5--6-6-6--7-7-7--6-6-6--|
|-5-4-----5-5-5--4-4-4--|-3-3-3--4-4-4--5-5-5--4-4-4--|


 -------|
|----------------------------------------------|
|----------------------------------------------|
|----------------------------------------------|
|---------3-3-3-3-3-3--------------------------|
|-1-1-1-1-------------2-2-2-2-2-2-2-2-2-2-2-2--|
|----------------------------------------------|
|
|-------|
|----------------------------------------------|
|----------------------------------------------|
|----------------------------------------------|
|---------6-6-6-6-6-6--------------------------|
|-5-5-5-5-------------5-5-5-5-5-5-5-5-5-5-5-5--|
|-3-3-3-3--------------------------------------|


 6/4
  Gtr I
|-------------------------------------------|
|-------------------------------------------|
|-------------------------------------------|
|-------------------------------------------|
|-7-7-7-7-7-7-10-10-10-10-10-10-9-9-9-9-9-9-|
|-------------------------------------------|
|
| Gtr II
|
|-------------------------------------------|
|-------------------------------------------|
|-------------------------------------------|
|-------------------------------------------|
|-7-7-7-7-7-7-10-10-10-10-10-10-9-9-9-9-9-9-|
|-------------------------------------------|


 6/4
  Gtr I
|------------------------------------------|
|------------------------------------------|
|------------------------------------------|
|--7-7-7-7-7-7-----------------------------|
|---------------6--6-6-6-6-6-6-6-6-6-6-6---|
|------------------------------------------|
|
| Gtr II
|               ~~~
|------------------------------------------|
|------------------------------------------|
|------------------------------------------|
|--7-7-7-7-7-7-----------------------------|
|--------------[6]-------------------------|
|------------------------------------------|


 Chorus
  Gtr I
                                                         ~
|---------------------|-------7--6--6----|-------------------|
|---------------------|----8--8--7--7----|-------------------|
|---------------------|----9--9--8--8----|-------------------|
|-5--4--5-------------|-9--9-----8-------|-9--8--9-----------|
|-7--6--7--7---10-10--|-7--------6-------|-9--8--9--6----9---|
|-0--0--0-------------|-0--------0-------|-7--6--7-----------|
|
| Gtr II
|                                                        ~
|---------------------|-------7--6--6----|-------------------|
|---------------------|-------8--7--7----|-------------------|
|---------------------|-9-----9--8--8----|-------------------|
|-5--4--5--4----7--7--|-9--------8-------|-------------------|
|-7--6--7-------------|-7--------6-------|-9--8--9--6----9---|
|-0--0--0-------------|-0--------0-------|-7--6--7-----------|


  Gtr I
                ~                    ~~
|--------------------|-------------------|
|--------------------|-------------------|
|--------------------|-------------------|
|-9--10--------------|-9--8--9-----------|
|--------7--10--9----|-9--8--9--6----9---|
|--------------------|-7--6--7-----------|
|
| Gtr II
|                                    ~~
|--------7---6--6----|-------------------|
|-----8--8---7--7----|-------------------|
|-----9--9---8--8----|-------------------|
|-9---9------8-------|-------------------|
|-7----------6-------|-9--8--9--9---12---|
|-0----------0-------|-7--6--7-----------|


                                  ~
|-------7--6--6----|-------------------|
|----8--8--7--7----|-------------------|
|----9--9--8--8----|-------------------|
|-9--9-----8-------|-9--8--9-----------|
|-7--------6-------|-9--8--9--6---9----|
|-0--------0-------|-7--6--7-----------|
|
|                                 ~
|-------7--6-------|-------------------|
|----8--8--7-------|-------------------|
|----9--9--8-------|-------------------|
|-9--9-----8-------|-------------------|
|-7--------6-------|-9--8--9--6---9----|
|-0--------0-------|-7--6--7-----------|


  Gtr I
                 ~~~                   ~~
|----------------------|--------------------|
|----------------------|--------------------|
|----------------------|--------------------|
|-9--10----------------|-9--8--9------------|
|--------7--10--[9]----|-9--8--9--6----9----|
|----------------------|-7--6--7------------|
|
| Gtr II
|                                      ~~
|--------7---6---------|--------------------|
|-----8--8---7---------|--------------------|
|-----9--9---8---------|--------------------|
|-9---9------8---------|--------------------|
|-7----------6---------|-9--8--9--9---12----|
|-0----------0---------|-7--6--7------------|


 Verse C
 4/4
  Gtrs I, II
  PM---------------------------------------------------
|-----------------------|-----------------------------|
|-----------------------|-----------------------------|
|-----------------------|-----------------------------|
|-----5-4---------------|-----------------------------|
|-7-6-3-2-7-7-7--6-6-6--|-5-5-5--6-6-6--7-7-7--6-6-6--|
|-5-4-----5-5-5--4-4-4--|-3-3-3--4-4-4--5-5-5--4-4-4--|


 -------|
|----------------------------------------------|
|----------------------------------------------|
|----------------------------------------------|
|---------6-6-6-6-6-6--------------------------|
|-5-5-5-5-------------5-5-5-5-5-5-5-5-5-5-5-5--|
|-3-3-3-3--------------------------------------|


 6/4
  Gtrs I, II
|--------------------------------------------|
|--------------------------------------------|
|--------------------------------------------|
|--------------------------------------------|
|-7-7-7-7-7-7-10-10-10-10-10-10-9-9-9-9-9-9--|
|--------------------------------------------|


|---------------------------------------|
|---------------------------------------|
|---------------------------------------|
|-7-7-7-7-7-7---------------------------|
|-------------6-6-6-6-6-6-6-6-6-6-6-6---|
|---------------------------------------|


  Gtr I
  PM---------|
|---------------------------------------------------------|
|---------------------------------------------------------|
|---------------------------------------------------------|
|---------------10-10-10-10-10-10-------------------------|
|-9-10-9-7-9-10-------------------9-9-9-9-9-9-9-9-9-9-9-9-|
|-7--8-7-5-7--8-------------------------------------------|
|
| Gtr II
| PM---------|
|---------------------------------------------------------|
|---------------------------------------------------------|
|---------------------------------------------------------|
|---------------------------------------------------------|
|-9-10-9-7-9-10-------------------------------------------|
|-7--8-7-5-7--8-------------------------------------------|


 4/4
  Gtr I
  PM---------------------------------------------------
|-----------------------|-----------------------------|
|-----------------------|-----------------------------|
|-----------------------|-----------------------------|
|-----5-4---------------|-----------------------------|
|-7-6-3-2-3-3-3--2-2-2--|-1-1-1--2-2-2--3-3-3--2-2-2--|
|-5-4-------------------|-----------------------------|
|
| Gtr II
| PM---------------------------------------------------
|-----------------------|-----------------------------|
|-----------------------|-----------------------------|
|-----------------------|-----------------------------|
|-----5-4---------------|-----------------------------|
|-7-6-3-2-7-7-7--6-6-6--|-5-5-5--6-6-6--7-7-7--6-6-6--|
|-5-4-----5-5-5--4-4-4--|-3-3-3--4-4-4--5-5-5--4-4-4--|


 -------|
|----------------------------------------------|
|----------------------------------------------|
|----------------------------------------------|
|---------3-3-3-3-3-3--------------------------|
|-1-1-1-1-------------2-2-2-2-2-2-2-2-2-2-2-2--|
|----------------------------------------------|
|
|-------|
|----------------------------------------------|
|----------------------------------------------|
|----------------------------------------------|
|---------6-6-6-6-6-6--------------------------|
|-5-5-5-5-------------5-5-5-5-5-5-5-5-5-5-5-5--|
|-3-3-3-3--------------------------------------|


 6/4
  Gtrs I, II
|--------------------------------------------|
|--------------------------------------------|
|--------------------------------------------|
|--------------------------------------------|
|-7-7-7-7-7-7-10-10-10-10-10-10-9-9-9-9-9-9--|
|--------------------------------------------|


|---------------------------------------|
|---------------------------------------|
|---------------------------------------|
|-7-7-7-7-7-7---------------------------|
|-------------6-6-6-6-6-6-6-6-6-6-6-6---|
|---------------------------------------|


  Gtrs I, II
  PM---------|
|---------------------------------------------------------|
|---------------------------------------------------------|
|---------------------------------------------------------|
|---------------10-10-10-10-10-10-------------------------|
|-9-10-9-7-9-10-------------------9-9-9-9-9-9-9-9-9-9-9-9-|
|-7--8-7-5-7--8-------------------------------------------|


 4/4
  Gtrs I, II
  PM---------------------------------------------------
|-----------------------|-----------------------------|
|-----------------------|-----------------------------|
|-----------------------|-----------------------------|
|-----5-4---------------|-----------------------------|
|-7-6-3-2-7-7-7--6-6-6--|-5-5-5--6-6-6--7-7-7--6-6-6--|
|-5-4-----5-5-5--4-4-4--|-3-3-3--4-4-4--5-5-5--4-4-4--|


 -------|
|----------------------------------------------|
|----------------------------------------------|
|----------------------------------------------|
|---------6-6-6-6-6-6--------------------------|
|-5-5-5-5-------------5-5-5-5-5-5-5-5-5-5-5-5--|
|-3-3-3-3--------------------------------------|

 6/4
  Gtrs I, II
|--------------------------------------------|
|--------------------------------------------|
|--------------------------------------------|
|--------------------------------------------|
|-7-7-7-7-7-7-10-10-10-10-10-10-9-9-9-9-9-9--|
|--------------------------------------------|


|---------------------------------------|
|---------------------------------------|
|---------------------------------------|
|-7-7-7-7-7-7---------------------------|
|-------------6-6-6-6-6-6-6-6-6-6-6-6---|
|---------------------------------------|


  Gtr I
  PM---------|
|---------------------------------------------------------------------|
|---------------------------------------------------------------------|
|---------------------------------------------------------------------|
|---------------13-13-13-13-13-13-------------------------------------|
|-9-10-9-7-9-10-------------------12-12-12-12-12-12-12-12-12-12-12-12-|
|-7--8-7-5-7--8-------------------------------------------------------|
|
| Gtr II
| PM---------|
|---------------------------------------------------------------------|
|---------------------------------------------------------------------|
|---------------------------------------------------------------------|
|---------------10-10-10-10-10-10-------------------------------------|
|-9-10-9-7-9-10--------------------9--9--9--9--9--9--9--9--9--9--9--9-|
|-7--8-7-5-7--8-------------------------------------------------------|


 4/4
  Gtr I
  PM---------------------------------------------------
|-----------------------|-----------------------------|
|-----------------------|-----------------------------|
|-----------------------|-----------------------------|
|-----5-4---------------|-----------------------------|
|-7-6-3-2-3-3-3--2-2-2--|-1-1-1--2-2-2--3-3-3--2-2-2--|
|-5-4-------------------|-----------------------------|
|
| Gtr II
| PM---------------------------------------------------
|-----------------------|-----------------------------|
|-----------------------|-----------------------------|
|-----------------------|-----------------------------|
|-----5-4---------------|-----------------------------|
|-7-6-3-2-7-7-7--6-6-6--|-5-5-5--6-6-6--7-7-7--6-6-6--|
|-5-4-----5-5-5--4-4-4--|-3-3-3--4-4-4--5-5-5--4-4-4--|


 -------|
|----------------------------------------------|
|----------------------------------------------|
|----------------------------------------------|
|---------3-3-3-3-3-3--------------------------|
|-1-1-1-1-------------2-2-2-2-2-2-2-2-2-2-2-2--|
|----------------------------------------------|
|
|-------|
|----------------------------------------------|
|----------------------------------------------|
|----------------------------------------------|
|---------6-6-6-6-6-6--------------------------|
|-5-5-5-5-------------5-5-5-5-5-5-5-5-5-5-5-5--|
|-3-3-3-3--------------------------------------|


 6/4
  Gtr I
|-------------------------------------------|
|-------------------------------------------|
|-------------------------------------------|
|-------------------------------------------|
|-7-7-7-7-7-7-10-10-10-10-10-10-9-9-9-9-9-9-|
|-------------------------------------------|
|
| Gtr II
|
|-------------------------------------------|
|-------------------------------------------|
|-------------------------------------------|
|-------------------------------------------|
|-7-7-7-7-7-7-10-10-10-10-10-10-9-9-9-9-9-9-|
|-------------------------------------------|


 6/4
  Gtr I
|------------------------------------------|
|------------------------------------------|
|------------------------------------------|
|--7-7-7-7-7-7-----------------------------|
|---------------6--6-6-6-6-6-6-6-6-6-6-6---|
|------------------------------------------|
|
| Gtr II
|               ~~~
|------------------------------------------|
|------------------------------------------|
|------------------------------------------|
|--7-7-7-7-7-7-----------------------------|
|--------------[6]-------------------------|
|------------------------------------------|


 Chorus
  Gtr I
                                                         ~
|---------------------|-------7--6--6----|-------------------|
|---------------------|----8--8--7--7----|-------------------|
|---------------------|----9--9--8--8----|-------------------|
|-5--4--5-------------|-9--9-----8-------|-9--8--9-----------|
|-7--6--7--7---10-10--|-7--------6-------|-9--8--9--6----9---|
|-0--0--0-------------|-0--------0-------|-7--6--7-----------|
|
| Gtr II
|                                                        ~
|---------------------|-------7--6--6----|-------------------|
|---------------------|-------8--7--7----|-------------------|
|---------------------|-9-----9--8--8----|-------------------|
|-5--4--5--4----7--7--|-9--------8-------|-------------------|
|-7--6--7-------------|-7--------6-------|-9--8--9--6----9---|
|-0--0--0-------------|-0--------0-------|-7--6--7-----------|


  Gtr I
                ~                    ~~
|--------------------|-------------------|
|--------------------|-------------------|
|--------------------|-------------------|
|-9--10--------------|-9--8--9-----------|
|--------7--10--9----|-9--8--9--6----9---|
|--------------------|-7--6--7-----------|
|
| Gtr II
|                                    ~~
|--------7---6--6----|-------------------|
|-----8--8---7--7----|-------------------|
|-----9--9---8--8----|-------------------|
|-9---9------8-------|-------------------|
|-7----------6-------|-9--8--9--9---12---|
|-0----------0-------|-7--6--7-----------|


                                  ~
|-------7--6--6----|-------------------|
|----8--8--7--7----|-------------------|
|----9--9--8--8----|-------------------|
|-9--9-----8-------|-9--8--9-----------|
|-7--------6-------|-9--8--9--6---9----|
|-0--------0-------|-7--6--7-----------|
|
|                                 ~
|-------7--6-------|-------------------|
|----8--8--7-------|-------------------|
|----9--9--8-------|-------------------|
|-9--9-----8-------|-------------------|
|-7--------6-------|-9--8--9--6---9----|
|-0--------0-------|-7--6--7-----------|


  Gtr I
   ~~~            ~~~                   ~~
|-----------------------|--------------------|
|-----------------------|--------------------|
|-[9]--10--7--9--[6]----|--------------------|
|-----------------------|-9--8--9------------|
|-----------------------|-9--8--9--6----9----|
|-----------------------|-7--6--7------------|
|
| Gtr II
|                                       ~~
|----------7--6---------|--------------------|
|-------8--8--7---------|--------------------|
|-------9--9--8---------|--------------------|
|--9----9-----8---------|--------------------|
|--7----------6---------|-9--8--9--9---12----|
|--0----------0---------|-7--6--7------------|


 Bridge
  Q=200
 3/4
  Gtr I
  PM----------------------------------------|
|-------------|---------------|---------------|
|-------------|---------------|---------------|
|-------------|---------------|---------------|
|-------------|---------------|---------------|
|-7---7-9---9-|-10---10-6---6-|-10---10-6---6-|
|---5-----7---|----8------5---|----8------5---|
|
| Gtr II
|-------------|---------------|---------------|
|-------------|---------------|---------------|
|-------------|---------------|---------------|
|-------------|---------------|---------------|
|-------------|---------------|---------------|
|-------------|---------------|---------------|


    Gtr I
    PM-----------------------------------------
||--------------|---------------|-------------|
||o-------------|---------------|-------------|
||--------------|---------------|-------------|
||--------------|----4----------|-------------|
||o-2-4-5-4-7-5-|-4--2--5-2-4-5-|-2-5-4-2-4-5-|
||--0-2-3-2-5-3-|-2-(2)-3-0-2-3-|-0-3-2-0-2-3-|
|
|   Gtr II
|   PM--------------------------------------|
||--------------|---------------|-------------|
||o-------------|---------------|-------------|
||--------------|---------------|-------------|
||--------------|----4----------|-------------|
||o-2-4-5-4-7-5-|-4--2--5-2-4-5-|-2-5-4-2-4-5-|
||--0-2-3-2-5-3-|-2-(2)-3-0-2-3-|-0-3-2-0-2-3-|


 -------------------------------------------|
|-------------|---------------|------------------||
|-------------|---------------|-----------------o||
|-------------|---------------|------------------||
|-------------|---------------|------------------||
|-7---7-9---9-|-10---10-6---6-|-10---10-6---6---o||
|---5-----7---|----8------5---|----8------5------||
|
|-------------|---------------|------------------||
|-------------|---------------|-----------------o||
|-------------|---------------|------------------||
|-7---7-9---9-|-10---10-6---6-|-10---10-6---6----||
|---5-----7---|----8------5---|----8------5-----o||
|-------------|---------------|------------------||

    PM-----------------------------------------
|---------------|---------------|-------------|
|---------------|---------------|-------------|
|---------------|---------------|-------------|
|---------------|----4----------|-------------|
|---2-4-5-4-7-5-|-4--2--5-2-4-5-|-2-5-4-2-4-5-|
|---0-2-3-2-5-3-|-2-(2)-3-0-2-3-|-0-3-2-0-2-3-|


  PM------------------------------------------|
|----------------|----------------|-------------|
|----------------|----------------|-------------|
|----------------|----------------|-------------|
|----------------|-9-9-9----------|-------------|
|-7-7-7-10-10-10-|-7-7-7-10-10-10-|-7-7-7-2-2-2-|
|-5-5-5--8--8--8-|-7-7-7--8--8--8-|-5-5-5-0-0-0-|


  Gtr I
|-7---6---|-7---3---|-6---3---|------|
|-8---7---|-8---4---|-7---4---|------|
|-9---8---|-9---5---|-8---5---|------|
|-9---8---|-9---5---|-8---5---|-7----|
|-7---6---|-7---3---|-6---3---|------|
|---------|---------|---------|------|
|
| Gtr II
|-7---6---|-7---3---|-6---3---|------|
|-8---7---|-8---4---|-7---4---|------|
|-9---8---|-9---5---|-8---5---|------|
|-9---8---|-9---5---|-8---5---|-2----|
|-7---6---|-7---3---|-6---3---|-2----|
|---------|---------|---------|-0----|


|--------------|----------|------------|----------|--------|
|--------------|----------|------------|----------|--------|
|--------------|----------|------------|----------|--------|
|-(7)----6h7p6-|--4-------|-(4)----4S6-|-(6)------|-(6)----|
|--------------|----------|------------|----------|--------|
|--------------|----------|------------|----------|--------|
|
|--------------|----------|------------|----------|--------|
|--------------|----------|------------|----------|--------|
|--------------|----------|------------|----------|--------|
|-(2)----------|-(2)------|-(2)--------|-(2)------|-(2)----|
|-(2)----------|-(2)------|-(2)--------|-(2)------|-(2)----|
|-(0)----------|-(0)------|-(0)--------|-(0)------|-(0)----|


 Outro
  Q=240
 2/4         4/4
  Gtrs I, II
        PM|
|-----------|---------------------------------|
|-----------|---------------------------------|
|-----------|---------------------------------|
|-----------|-----------------7-7-7-7-7-7-7-7-|
|-7h8p7-----|-7-7-7-7-7-7-7-7-----------------|
|-------4-5-|---------------------------------|



|-----------------------------------------|
|-----------------------------------------|
|-----------------------------------------|
|-10-10-10-10-10-10-10-10-7-7-7-7-7-7-7-7-|
|-----------------------------------------|
|-----------------------------------------|

			  PM|
|-----------|--------------------|
|-----------|--------------------|
|-----------|-5-5----------------|
|-9---------|-7-7----------------|
|-7----7----|-------7h8p7--------|
|------5----|-------------4-5----|


  Gtr I
|---------------------------------|
|---------------------------------|
|---------------------------------|
|---------------------------------|
|-7-7-7-7-7-7-7-7-7-7-7-7-7-7-7-7-|
|---------------------------------|
|
| Gtr II
|---------------------------------|
|---------------------------------|
|---------------------------------|
|-----------------7-7-7-7-7-7-7-7-|
|-7-7-7-7-7-7-7-7-----------------|
|---------------------------------|


                                                                    PM|
|-----------------------------------------|-----------|-------------------|
|-----------------------------------------|-----------|-------------------|
|-----------------------------------------|-----------|-5-5---------------|
|-10-10-10-10-10-10-10-10-7-7-7-7-7-7-7-7-|-9---------|-7-7---------------|
|-----------------------------------------|-7----7----|-------7h8p7-------|
|--8--8--8--8--8--8--8--8-5-5-5-5-5-5-5-5-|------5----|-------------4-5---|
|
|                                                                   PM|
|-----------------------------------------|-----------|-------------------|
|-----------------------------------------|-----------|-------------------|
|-----------------------------------------|-----------|-5-5---------------|
|-10-10-10-10-10-10-10-10-7-7-7-7-7-7-7-7-|-9---------|-7-7---------------|
|-----------------------------------------|-7----7----|-------7h8p7-------|
|-----------------------------------------|------5----|-------------4-5---|


  Gtr I
|--------------------------------------|
|--------------------------------------|
|--------------------------------------|
|-10-----------6-----------------------|
|--8-----------6-----------------------|
|--8-----------4-----------------------|
|
| Gtr II
|--------------------------------------|
|--------------------------------------|
|--------------------------------------|
|-10-----------------------------------|
|--8-----------6-----------------------|
|--------------4-----------------------|
|
| Gtr III
|-16-------16--------------------------|
|----14-14----14-14-----------------14-|
|--------------------14-12----12-14----|
|--------------------------14----------|
|--------------------------------------|
|--------------------------------------|


  Gtr I
|-------------------------------------------|
|-------------------------------------------|
|-------------------------------------------|
|--7-----------9----------------------------|
|--5-----------7----------------------------|
|--5-----------7----------------------------|
|
| Gtr II
|-------------------------------------------|
|-------------------------------------------|
|-------------------------------------------|
|--7-----------9----------------------------|
|--5-----------7----------------------------|
|-------------------------------------------|
|
| Gtr III
|-14-20-14-14-14-------14-18----18-24-18----|
|----------------14-16-------20-------------|
|----------------------------------------20-|
|-------------------------------------------|
|-------------------------------------------|
|-------------------------------------------|


  PM--|
|------------------------|----------------------|
|------------------------|----------------------|
|------------------------|----------------------|
|--------6-6-6-6-7-7-7-7-|-9-9-9-9-9-9-9-9-6----|
|-3-3-2------------------|-----------------7----|
|-1-1-0------------------|----------------------|
|
| PM--|
|------------------------|----------------------|
|------------------------|----------------------|
|------------------------|----------------------|
|--------6-6-6-6-7-7-7-7-|-9-9-9-9-9-9-9-9-6----|
|-3-3-2------------------|-----------------7----|
|-1-1-0------------------|----------------------|
|
|------------------------|----------------------|
|------------------------|----------------------|
|------------------------|----------------------|
|------------------------|----------------------|
|------------------------|----------------------|
|------------------------|----------------------|


  Gtrs I, II
                                         PM------|
|------------|------------|------------|--------------*|
|------------|------------|------------|--------------*|
|------------|------------|------------|--------------*|
|-(6)--------|-(6)--------|-(6)--------|--------------*|
|-(7)--------|-(7)--------|-(7)--------|-4-5-4-5-2----*|
|------------|------------|------------|-2-3-2-3-0----*|


Tablature Legend
----------------
 h   - hammer-on
 p   - pull-off
 b   - bend
 pb  - pre-bend
 r   - bend release (if no number after the r, then release immediately)
 /\  - slide into or out of (from/to "nowhere")
 s   - legato slide
 S   - shift slide
<n>  - natural harmonic
[n]  - artificial harmonic
n(n) - tapped harmonic
 ~   - vibrato
 tr  - trill
 T   - tap
 TP  - trem. picking
 PM  - palm muting
\n/  - tremolo bar dip; n = amount to dip
 \n  - tremolo bar down
 n/  - tremolo bar up
/n\  - tremolo bar inverted dip
 =   - hold bend; also acts as connecting device for hammers/pulls
 <>  - volume swell (louder/softer)
 x   - on rhythm slash represents muted slash
 o   - on rhythm slash represents single note slash

Misc Legend
-----------
 |  - bar
||  - double bar
||o - repeat start
o|| - repeat end
*|  - double bar (ending)
 :  - bar (freetime)
 $  - Segno
 &  - Coda
Tempo markers - <E/E./Q/Q./H/H.> = BPM(8/16=s8/s16), where s8 = swing 8ths,
s16 = swing 16ths

  Visit MetalTabs.com for more metal tablature

bottom separator

Contact Us | Privacy Policy | Disclaimer | Legal Notice
Copyright © 2001-2014 MetalTabs.com. All Rights Reserved.