top separator

Home

Forum

What's New

Submit a Tab

FAQ

Links

Contact Us

Link to Us

MetalTabs.com logo

Bands

0-9

A

B

C

D

E

F

G

H

I

J

K

L

M

N

O

P

Q

R

S

T

U

V

W

X

Y

Z

Search

What

Where
 

Dying Fetus - "One Shot, One Kill" Guitar Tab

Plain Text Version
More Dying Fetus Tabs

Hits: 11820
Rated: 5.00 out of 5 (19 votes)
Updated: 2005-01-12 09:04:22

 

By:

sendpm.gif

email.gif

Important note
This tab is available online because we obtained explicit permission from Dying Fetus or their label.


#----------------------------------PLEASE NOTE---------------------------------#
#This file is the author's own work and represents their interpretation of the #
#song. You may only use this file for private study, scholarship, or research. #
#Unless specified otherwise, this is NOT an official tab from the band members.#
#------------------------------------------------------------------------------#

  Visit MetalTabs.com for more metal tablature
  
Band:  (Dying Fetus)
Album: (Stop At Nothing)
Song:  (One Shot, One Kill)

Copyright (c)  (Relapse Records) (2003)
Version 1.0 - (12/2/04)

Transcribed By: (Volosnankovy zuzik)
Email:          (glebvic@yahoo.com)


.  - palm mute           /  - slide up to
  - slide down to       ~  - vibrato
h  - hammer on           b  - Bend
p  - pull off            Suffixes for bend
t  - tap                 f  - full bend    h - half bend
ph - pinched harmonic    q  - quarter bend t - tap bend
*  - see comment         ^  - Hold bend    r release bend
x  - Stuccatto           ~  - vibrato bend
,  - slight palm mute    () - ghost note, sustained note
"  - tremolo note        <> - Trill

Tunning C# F# B E G# C#

Riff 1
|----------------------------------------------------|
|----------------------------------------------------|
|----------------------------------------------------|
|----------------------------------------------------|
|----------------------------------------------------|
|--000000004100000000000000410052000000000041000000--|

(ending 1-3)        (ending 4)
-------------------|--------------------|
-------------------|--------------------|
-------------------|--------------------|
-------------------|--7--6--------------|
--3-------7---6-7--|--5--4--7--6--7--6--|
--1---00005---4-5--|--------5--4--5--4--|

Riff 2
-------------------------------------------------------------------|
-------------------------------------------------------------------|
-------------------------------------------------------------------|
-------------------------------------------------------------------|
----------43-------------43-76---------43-----3-------7--6--7--|
--0-000-0-21-0-0-0-000-0-21-54-0-000-0-21-0-0-1---0-0-5--4--5--|

Riff 3
-------------------------------------------------------------------|
-------------------------------------------------------------------|
-------------------------------------------------------------------|
-------------------------------------------------------------------|
--4-------4---------------4--2--4--5-----------5---2-------5-------|
--2-------2---------------2--0--2--3-----------3---0-------3-------|

-------------------------------------------------------------------|
-------------------------------------------------------------------|
-------------------------------------------------------------------|
-------------------------------------------------------------------|
--4-------4---------------4--2--4--4-----------4---5-------3-------|
--2-------2---------------2--0--2--5-----------5---6-------1-------|

Riff 4
(3x)                (ending 1)
-------------------|--------------------|
-------------------|--------------------|
-------------------|--"-----------------|
--7-11-7-----------|--12-------8-7-8-7--|
---------8-7-8-7-8-|--------------------|
-------------------|--------------------|

(2x)                (ending 2)
-------------------|-------------------------------------|
-------------------|-------------------------------------|
-------------------|-------------------------------------|
--7-11-7-----------|-------------------------------------|
---------8-7-8-7-8-|--7-8-11-8-7--------3-4-7-4-3--------|
-------------------|-------------10-8-7-----------6-4-3--|

Riff 5
(3x)
------------------|-------------------|
------------------|-------------------|
------------------|-------------------|
--10--------------|-------------------|
--8-----3-4-3-----|--6-------7---6/7--|
--8---0-1-2-1-0-0-|--4---0-0-5---4/5--|

Riff 6
(3x)
------------------|-------------------|
------------------|-------------------|
------------------|-------------------|
------------------|-------------------|
--8---------------|-------------------|
------0-1-2-1-0-0-|--4---0-4-5---4-0--|
(all tremolo picked.................)


Riff 7
(3x)
------------------|-------------------|
------------------|-------------------|
------------------|-------------------|
--10--------------|-------------------|
--8-----3-4-3-----|--6-------7---6/7--|
--8---0-1-2-1---0-|--4---0-0-5---4/5--|

Riff 8
------------------------------------------------------|
------------------------------------------------------|
-----------------------------3-6-3-------3-6-3--------|
--------------2-5-2----------------4-3-4-------4-3-4--|
--7---3---7---------3---------------------------------|
--5---1---5-----------2-------------------------------|

--------------------------------------------------------------------------|
--------------------------------------------------------------------------|
--2-5-2-------2-5-2-------5-8-5-------5-8-5-------4-7-4-------4-7-4-------|
--------3-2-3-------3-2-3-------6-5-6-------6-5-6-------5-4-5-------5-4-5-|
--------------------------------------------------------------------------|
--------------------------------------------------------------------------|

--------------------------------------|
--------------------------------------|
--------------------------------------|
--------------------------------------|
-----1--2-----1--2-----1--2-----1--2--|
--0--3--4--0--3--4--0--3--4--0--3--4--|



Riff 9
--(2x)--------|-(2x)--------|-(2x)--------|-(2x)--------|-(2x)---------|
--------------|-------------|-------------|-------------|--------------|
--3-6-3-------|-2-5-2-------|-5-8-5-------|-4-7-4-------|-7-10-7-------|
--------4-3-4-|-------3-2-3-|-------6-5-6-|-------5-4-5-|--------8-7-8-|
--------------|-------------|-------------|-------------|--------------|
--------------|-------------|-------------|-------------|--------------|

-(2x)--------|
-------------|
-6-9-6-------|
-------7-6-7-|
-------------|
-------------|
Riff 10
-----------------------------------------------------------------|
-----------------------------------------------------------------|
--2-5-2-------3-6-3-------2-5-2---2-5-2-------3-6-3--------------|
--------3-----------4-------------------3-----------4------------|
----------2-----------3-------------------2-----------3---3---4--|
----------------------------------------------------------1---2--|

--(1x before each ending)--------|
---------------------------------|
--2-5-2-------3-6-3-------2-5-2--|
--------3-----------4------------|
----------2-----------3----------|
---------------------------------|

(end 1)
--5h8p5-----8h11p8-------11h14p11-------14h17p14--------|
--------7----------10-------------13-------------16-----|
----------8-----------11-------------14-------------17--|
--------------------------------------------------------|
--------------------------------------------------------|
--------------------------------------------------------|

(end 2)
---------------------------------------------------|
--1-4-1--------------------------------------------|
--------2-1-2-2-5-2--------------------------------|
--------------------3-2-3-3-6-3--------------------|
--------------------------------4-3-4-4-7-4--------|
--------------------------------------------5-4-5--|

(end 3)
--12-13-16-13-12-----------------------------------------------------|
-----------------15-13-12-10-12-13-12-10-----------------------------|
-----------------------------------------12-10-9---------------------|
-------------------------------------------------9-7-6---------------|
-------------------------------------------------------8-7-5------3--|
------------------------------------------------------------8p7p5-1--|

Riff 11
------------------------------------------------------------------|
------------------------------------------------------------------|
------------------------------------------------------------------|
--------3-------------------------------3-------------------------|
--2-----1---2---3---2---3-6---3-5-2-----1---2---3---2---3-6-6-5-6-|
--0-0000--000-001-000-001-4-001-3-0-0000--000-001-000-001-4-4-3-4-|

Riff 12
------------------------------------------------------------------|
------------------------------------------------------------------|
------------------------------------------------------------------|
--------3-------------------------------3-------------------------|
--2-----1---------2-----3---------2-----1---2---6---6-6-6-6-6-6-6-|
--0-0000--000000000-00001-000000000-0000--000-004---4-4-4-4-4-4-4-|

Riff 13
------------------------------------------------------------------|
------------------------------------------------------------------|
------------------------------------------------------------------|
--------3-------------------------------3-------------------------|
--2-----1---------2-----3---------2-----1---2---6---6-6-6-6-6-6-6-|
--0-0-0---0-0-0-0-0-0-0-1-0-0-0-0-0-0-0---0-0-0-4---4-4-4-4-4-4-4-|

END

  Visit MetalTabs.com for more metal tablature

bottom separator

Contact Us | Privacy Policy | Disclaimer | Legal Notice
Copyright © 2001-2014 MetalTabs.com. All Rights Reserved.