top separator

Home

Forum

What's New

Submit a Tab

FAQ

Links

Contact Us

Link to Us

MetalTabs.com logo

Bands

0-9

A

B

C

D

E

F

G

H

I

J

K

L

M

N

O

P

Q

R

S

T

U

V

W

X

Y

Z

Search

What

Where
 

Psycroptic - "A Planetary Discipline" Guitar Tab

Plain Text Version
More Psycroptic Tabs

Hits: 3777
Rated: 4.50 out of 5 (8 votes)
Updated: 2004-12-05 16:40:17

 

By:

Cloaca

sendpm.gif

email.gif

Important note
This tab is available online because we obtained explicit permission from Psycroptic or their label.


#----------------------------------PLEASE NOTE---------------------------------#
#This file is the author's own work and represents their interpretation of the #
#song. You may only use this file for private study, scholarship, or research. #
#Unless specified otherwise, this is NOT an official tab from the band members.#
#------------------------------------------------------------------------------#

  Visit MetalTabs.com for more metal tablature
  
Psycroptic - 'A Planetary Discipline'
The Scepter Of The Ancients (2003)
Unique Leader Records

Tabbed by Tim Snowsill (Tim_Snowsill@hotmail.com)
02/12/04

________________________________________________________________________________
Tab Rhythm is hardly perfect so listen to CD. Any comments or corrections can be
e-mailed to above address.

________________________________________________________________________________
Dropped D Tuning


 Riff A
   Gtr. 1
||-----------------------------------------------------------|
||-----------------------------------------------------------|
||-----------------------------------------------------------|
||-------------------------------------------------------235-|
||---------888855555555------------555522222222~---235235----|
||-00006666------------666600003333-------------235----------|

 Riff A (Cont.)                                   ______  ______
   Gtr. 1                                        |    1. |    2.
||----------------------------------------------|-------|-------||
||----------------------------------------------|------.|-------||
||----------------------------------------------|-------|-------||
||-------------------------------------66666666-|------.|-------||
||---------888855555555------------8888---------|-6--3--|-3--4--||
||-00006666------------666600009999-------------|-6--3--|-3--6--||


 Riff A 2x


 Riff B
   Gtr. 1               (1x)
||--------------------------||
||--------------------------||
||--------------------------||
||-------------9p6----------||
||----------------8---------||
||-0-3-6-0-9-6-----9p7p6----||
||                          ||
|| Gtr. 2                   ||
||--------------------------||
||--------------------------||
||-------------10p7---------||
||-----------------9p6------||
||--------------------8p5---||
||-0-3-6-0-9-6--------------||



 Riff C                      _______________________  _________________
   Gtr. 1                   |                    1.  |               2.
||-------------------------|------------------------|------------------||
||-------------------------|-----------------------.|------------------||
||-------------------------|------------------------|------------------||
||-------3-----4-3---------|-----------------------.|---------6p9p6----||
||-----------------5-------|------5-----3-----2/3\2-|------5h8-----8---||
||-0-3-6---6-7-------6-6-9-|0-3-6---7-7---6-3-2/3\2-|-0h3h6---------9~-||



 Riff D
   Gtr. 1        (1x)
||-------------------||
||-------------------||
||-7p4---10p7--------||
||-----6------9------||
||---------------0---||
||---------------0---||
||                   ||
|| Gtr. 2            ||
||-------------------||
||-------------------||
||-------------------||
||-9p6---12p9--------||
||-----8------11-0---||
||---------------0---||


 Riff E
   Gtr. 1                                                                (2x)
|-----------------------------------------------------------------------------|
|----------------------------------------------------------------------------.|
|-----------------------------------------------------------------------------|
|---4-----87-----8\7--------------7\22/3---4-----87--------------------------.|
|----56------9p5-6\5--1p0---0h1h4-5\00/1----56------9p5-6p55~~1p0-----1144114~|
|000---110--0---0---001p00000h1h40------000---110--0---0------1p001014--------|



 Riff F
   Gtr. 1   (1x)
||-------------||
||-------------||
||-------------||
||-------------||
||------0h1h41-||
||-1h3h4-----1-||



 Riff G
   Gtr. 1
||----------------------------------------------------------------------|
||----------------------------------------------------------------------|
||----------------------------------------------------------------------|
||-4---------------------------4---7h8p754~754-----4--------------------|
||--566-------------------------566-----------650---566-----------------|
||-----000011110000444400000000-----------------0------0000111100004444-|

 Riff G (Cont.)
   Gtr. 1                        (2x)
||-----------------------|----------||
||-----------------------|---------.|| * End Here Second Time
||-----------------------|----------||
||---------------------*-|---------.||
||-4/5\4-1-4-----2-1-----|----------||
||-4/5\4-1-4-0145-5-5410-|00000000--||



 Riff H
   Gtr. 1                           (4x)
||--------------------------------------||
||-------------------------------------.||
||-----------7\6------------------------||
||-7/8-5/7---5\4-8\7-------------------.||
||-5/6-3/5-------6\5-3---4~-----2-1-----||
||----0---000---0---0-5404~-0145-5-5410-||



 Riff A1
   Gtr. 1                             (1x)
||----------------------------------------||
||----------------------------------------||
||----------------------------------------||
||----------------------7-4---------------||
||-------8--5~------3-4-5-2-------0h1h4---||
||-0--6---------6\--3-4------1h3h4-----0--||
||                                        ||
|| Gtr. 1                                 ||
||----------------------------------------||
||----------------------------------------||
||----------------------------------------||
||-------10-7~----------7-4-------4h5h7---||
||-0--6---------6\--3-4-5-2--3h5h6--------||
||------------------3-4----------------0--||


 Riff A2
   Gtr. 1
||----------------------------------------------|-------|
||----------------------------------------------|-------|
||----------------------------------------------|-------|
||-------------------------------------66666666-|-------|
||---------888855555555------------8888---------|-6--3--|
||-00006666------------666600009999-------------|-6--3--|

 Riff A2 (Cont.)
   Gtr. 1
||-----------------------------------------------------------|
||-----------------------------------------------------------|
||-----------------------------------------------------------|
||-------------------------------------------------------235-|
||---------888855555555------------555522222222~---235235----|
||-00006666------------666600003333-------------235----------|
                                                |____||____|
 Riff A2 (Cont.)
   Gtr. 1                                           (1x)
||----------------------------------------------|-------||
||----------------------------------------------|-------||
||----------------------------------------------|-------||
||-------------------------------------66666666-|-------||
||---------888855555555------------8888---------|-3--4--||
||-00006666------------666600009999-------------|-3--6--||



 Riff I
   Gtr. 1                                          (2x)
||-----------------------------------------------------||
||----------------------------------------------------.||
||-----------------------------------------------------||
||-------4-----------------------3--------------------.||
||-2-3-2-2-5-3-5b6r5-0-2-3-1-1-1-1-3-2-5~p0-3p2--------||
||-2-3-2---5-3-------0-2-3-1-1-1---3-2----------1-2-5~-||



 Riff J
   Gtr. 1                                         (2x)
||----------------------------------------------------||
||---------------------------------------------------.||
||----------------------------------------------------||
||---------------------------------------------------.||
||--------------32----5b6r5~-------------550322-------||
||-2222223p2222---541--------1111112p1111------112255-||



 Riff K
   Gtr. 1
||--------|------------------------------------------------|
||--------|.-----------------------------------------------|
||--------|---------------------------5--------------------|
||--------|.--------7777----8888-----5--7---8\7--8\5-------|
||-2--5-1-|-----5555----8888----6\5-----5---6\5--6\3--63---|
||-2--5-1-|-5555-------------------87-------------------74-|

 Riff K (Cont.)
   Gtr. 1
||-----------------------------------------------------|
||-----------------------------------------------------|
||-----------------------------------------------------|
||---------7777------888888----------------------------|
||-----5555----6~6666------6\-6p33333335p3333333-6-5-3-|
||-5555------------------------------------------6-5-3-|

 Riff K (Cont.)
   Gtr. 1
||------------------------------------------------------------|
||------------------------------------------------------------|
||---------------------------5--------------------------------|
||---------7777----8888-----5---------------------------------|
||-----5555----8888----6\5----555555556p55555556p3333333-63---|
||-5555-------------------87-------------------------------74-|

 Riff K (Cont.)
   Gtr. 1                                                (1x)
||-----------------------------------------------------------||
||-----------------------------------------------------------||
||-----------------------------------------------------------||
||---------7777------888888----------------------------------||
||-----5555----6~6666------6\-6p33333335p3333333-6-5-3-5--1~-||
||-5555------------------------------------------6-5-3-5--1~-||



 Riff L
   Gtr. 1
||--------------------------------------------------------|
||.-------------------------------------------------------|
||--------------------------------------------------------|
||.------------------------------------2222----2----------|
||-----------------------------22223333----3333-3---------|
||-0h22222222--222222222b3-0356------------------525p03p0-|

 Riff L (Cont.)                           ____  _____________________
   Gtr. 1                                | 1,3 |                   2.
||--------------------------------------|-----|----------------------||
||--------------------------------------|----.|---------------------.||
||--------------------------------------|-----|----------------------||
||--------------------------------------|----.|---------------------.||
||----------------------------5-4-4h5p4-|-4-1-|-8-7~--3322--2276327\-||
||-222222222--222222222b3-03567-6-------|-4-1-|-----------66------7\-||


 Riff C 1x

 Riff D 1x

 Riff G 2x

 Riff H 2x

End.

  Visit MetalTabs.com for more metal tablature

bottom separator

Contact Us | Privacy Policy | Disclaimer | Legal Notice
Copyright © 2001-2014 MetalTabs.com. All Rights Reserved.