top separator

Home

Forum

What's New

Submit a Tab

FAQ

Links

Contact Us

Link to Us

MetalTabs.com logo

Bands

0-9

A

B

C

D

E

F

G

H

I

J

K

L

M

N

O

P

Q

R

S

T

U

V

W

X

Y

Z

Search

What

Where
 

Darkseed - "The Sealing Day" Guitar Tab

Plain Text Version
More Darkseed Tabs

Hits: 2931
Rated: 1.00 out of 5 (1 vote)
Updated: 2004-12-05 16:27:38

 

By:

sendpm.gif

email.gif

Important note
This tab is available online because we obtained explicit permission from Darkseed or their label.


#----------------------------------PLEASE NOTE---------------------------------#
#This file is the author's own work and represents their interpretation of the #
#song. You may only use this file for private study, scholarship, or research. #
#Unless specified otherwise, this is NOT an official tab from the band members.#
#------------------------------------------------------------------------------#

  Visit MetalTabs.com for more metal tablature
  
Band:  Darkseed
Album: Midnight Solemnly Dance
Song:  The Sealing Day

Copyright (c)  Serenades records 1996
Version 1.0   12-01-2004

Transcribed By: Todieforlove
Email:          zootsspirit@yahoo.com



Tunning E A D G B E

Opening Guitar.
E|------------------------------------------------|
B|------------------------------------------------|
G|------0-----0--------0-----0--------0-----0-----|
D|----9-----9--------7-----7--------9-----9-------|
A|--7-----7-----7--9-----9-----9--7-----7-----7---|
E|------------------------------------------------|

E|------------------------------------------------|
B|------------------------------------------------||
G|------0-----4-----------------------------------|
D|----7-----4-------Play the whole thing 4 times--|
A|--5-----2---------------------------------------|
E|------------------------------------------------|


END

  Visit MetalTabs.com for more metal tablature

bottom separator

Contact Us | Privacy Policy | Disclaimer | Legal Notice
Copyright © 2001-2014 MetalTabs.com. All Rights Reserved.