top separator

Home

Forum

What's New

Submit a Tab

FAQ

Links

Contact Us

Link to Us

MetalTabs.com logo

Bands

0-9

A

B

C

D

E

F

G

H

I

J

K

L

M

N

O

P

Q

R

S

T

U

V

W

X

Y

Z

Search

What

Where
 

Inquisition (CO) - "The Realm of Shadows shall forever reign" Guitar Tab

Plain Text Version
More Inquisition (CO) Tabs

Hits: 2717
Rated: 3.00 out of 5 (2 votes)
Updated: 2005-03-24 12:38:40

 

By:

EZURATE

sendpm.gif

email.gif

Important note
We did our best to reach Inquisition (CO) and ask for their permission to publish this tab. Unfortunately they did not respond to our requests or we could not find a way to contact them. This tab is available online until Inquisition (CO) tells us to take it down.


#----------------------------------PLEASE NOTE---------------------------------#
#This file is the author's own work and represents their interpretation of the #
#song. You may only use this file for private study, scholarship, or research. #
#Unless specified otherwise, this is NOT an official tab from the band members.#
#------------------------------------------------------------------------------#

  Visit MetalTabs.com for more metal tablature
  
Band:      INQUISITION
Song:      THE REALM OF SHADOWS SHALL FOREVER REIGN
Album:     INVOKING THE MAJESTIC THRONE OF SATAN
Copyright: WAR HAMMER RECORDS (2001)

Transcribed by: Tony Baranowski (ezurate@sbcglobal.net)
Version 1.0 - November 29, 2004
Version 1.2 - December 02, 2004
Version 1.4 - March 15, 2005

Notation:
/ = shift slide throughout
[ = brush/sweep picking
( = sustained/ghost notes
^ = palm-muted picking
> = sforzando
t = tap
b = bend
p = pull-off
h = hammer-on
~ = mild vibrato

Tuning: D/G/C/F/A/D

|-Intro-(Guitar)--|
|-----------------|
|-----------------|
|--5---5---5---5--|
|---7---7---7---7-|
|-0---0---0---0---|
| >   >   >   >   |
|-Intro-(Bass)----|
|-----------------|
|-----------------|
|-0---0---0---0---|

  1e&a 2e&a 3e&a 4e&a   1e&a 2e&a 3e&a 4e&a
|-Verse---------------|---------------------|
|---------------------|---------------------|
|---------------------|---------------------|
|------5555------5555-|------5555-----------|
|---------------------|-----------3333-5555-|
|-0000------0000------|-0000----------------|
| ^^^^      ^^^^        ^^^^                |
|---------------------|---------------------|
|---------------------|---------------------|
|---------------------|-----------3----5----|
|-0----3----0----3----|-0----3--------------|

  1,2,3,4,5,6,7__________    8__________
               Em
  1e &a 2e &a  3  &  4  &    1e &a 2e &a
|-Riff--------[0]------(0)-|-------------|
|-------------[0]------(0)-|-------------|
|-------------[0]------(0)-|-------------|
|-44-55-44-00-[2]------(2)-|-44-55-44-00-|
|--------------------------|-------------|
|--------------------------|-------------|

    E5C5    D5
  1 2 & 3 4 & a
|-Verse-II------|
|---------------|
|---------------|
|---------------|
|---7-3-3-3/5-5-|
|-0-------------|
|               |
|---------------|
|---------------|
|---------------|
|-0---------(0)-|

                  D5  C5
  1&a 2&a 3&a 4&a 5&a 6&a   1&a 2&a 3&a 4&a 5&a 6&a
|-Verse-III---------------|-------------------------|
|-------------------------|-------------------------|
|-------------------7---5-|-------------------7---5-|
|------------------7---5--|------------------7---5--|
|-7---7---7---7---5---3---|-7---7---7---7---5---3---|
|--00--00--00--00---------|--00--00--00--00---------|
|                                                   |
|-Verse-III-(Lead-Guitar)-|-------------------------|
|-------------------------|-------------------------|
|-------------------------|-------------------------|
|-------------------------|-------------------------|
|-------------------------|-------------------------|
|-Tacet-------------------|-------------------------|

 1&a 2&a 3&a 4&a  5  &  a  6  &  a   1&a 2&a 3&a 4&a
|-Verse-III-(continued)------------|-----------------
|----------------------------------|-----------------
|-----------------------7--------5-|-----------------
|--------------------7--------5----|-----------------
|-7---7---7---7---5--------3-------|-7---7---7---7---
|--00--00--00--00------------------|--00--00--00--00-
|
|----------------------------------|-----------------
|-----------------16b-(17)-16b-(17)|-16b-(17)----(17)
|----------------------------------|-----------------
|----------------------------------|-----------------
|----------------------------------|-----------------
|----------------------------------|-----------------


  5  &  a  6  &  a   1&a 2&a 3&a 4&a 5&a 6&a
 ------------------|-------------------------|
 ------------------|-------------------------|
 -------7--------5-|-------------------7---5-|
 ----7--------5----|------------------7---5--|
 -5--------3-------|-7---7---7---7---5---3---|
 ------------------|--00--00--00--00---------|
                                             |
 ------------------|-------------------------|
 -16b-(17)-16b-(17)|-------------------------|
 ------------------|-16~---------(16)--------|
 ------------------|-------------------------|
 ------------------|-------------------------|
 ------------------|-------------------------|

  1&a 2&a 3&a 4&a 5&a 6&a   1&a 2&a 3&a 4&a 5&a 6&a
|-------------------------|-------------------------|
|-------------------------|-------------------------|
|-------------------7---5-|-------------------7---5-|
|------------------7---5--|------------------7---5--|
|-7---7---7---7---5---3---|-7---7---7---7---5---3---|
|--00--00--00--00---------|--00--00--00--00---------|
|                                                   |
|-------------------------|-------------------------|
|-------------------------|-------------------------|
|-------------------------|-------------------------|
|-------------------------|-------------------------|
|-------------------------|-------------------------|
|-Tacet-------------------|-------------------------|

  1&a 2&a 3&a 4&a 5&a 6&a   1&a 2&a 3&a 4&a 5&a 6&a
|-------------------------|-------------------------|
|-------------------------|-------------------------|
|-------------------7---5-|-------------------7---5-|
|------------------7---5--|------------------7---5--|
|-7---7---7---7---5---3---|-7---7---7---7---5---3---|
|--00--00--00--00---------|--00--00--00--00---------|
|                                                   |
|-------------------------|-------------------------|
|-------------------------|-------------------------|
|-------------------------|-------------------------|
|-------------------------|-------------------------|
|-------------------------|-------------------------|
|-Tacet-------------------|-------------------------|

  1&a 2&a 3&a 4&a 5&a 6&a   1&a 2&a 3&a 4&a 5&a 6&a
|-------------------------|-------------------------|
|-------------------------|-------------------------|
|-------------------7---5-|-------------------7---5-|
|------------------7---5--|------------------7---5--|
|-7---7---7---7---5---3---|-7---7---7---7---5---3---|
|--00--00--00--00---------|--00--00--00--00---------|
|                                                   |
|-------------------------|-------------------------|
|-------------------------|-------------------------|
|-------------------------|-------------------------|
|-------------------------|-------------------------|
|-------------------------|-------------------------|
|-Tacet-------------------|-------------------------|

  1&a 2&a 3&a 4&a 5&a 6&a
|-------------------------|
|-------------------------|
|-------------------7---5-|
|------------------7---5--|
|-7---7---7---7---5---3---|
|--00--00--00--00---------|
|                         |
|-------------------------|
|-------------------------|
|-------------------------|
|-------------------------|
|-------------------------|
|-Tacet-------------------|

  1      &      a      2      &      a
|--------------------------------------|
|--------------------------------------|
|--------------------------------------|
|--------------------------------------|
|-7--------------------7---------------|
|--------0------0-------------0------0-|
|                                      |
|-t12~-p8p7p5h7h8------t12~-p8p7p5h7h8-|
|--------------------------------------|
|--------------------------------------|
|--------------------------------------|
|--------------------------------------|
|--------------------------------------|

  3      &      a      4      &      a
|--------------------------------------|
|--------------------------------------|
|--------------------------------------|
|--------------------------------------|
|-7--------------------7---------------|
|--------0------0-------------0------0-|
|                                      |
|-t12~-p8p7p5h7h8------t12~-p8p7p5h7h8-|
|--------------------------------------|
|--------------------------------------|
|--------------------------------------|
|--------------------------------------|
|--------------------------------------|

  5      &      a      6      &      a
|--------------------------------------|
|--------------------------------------|
|---------------7--------------------5-|
|--------7--------------------5--------|
|-5--------------------3---------------|
|--------------------------------------|
|                                      |
|-t12~-p8p7p5h7h8------t12~-p8p7p5h7h8-|
|--------------------------------------|
|--------------------------------------|
|--------------------------------------|
|--------------------------------------|
|--------------------------------------|

  1      &      a      2      &      a
|--------------------------------------|
|--------------------------------------|
|--------------------------------------|
|--------------------------------------|
|-7--------------------7---------------|
|--------0------0-------------0------0-|
|                                      |
|-t12~-p8p7p5h7h8------t12~-p8p7p5h7h8-|
|--------------------------------------|
|--------------------------------------|
|--------------------------------------|
|--------------------------------------|
|--------------------------------------|

  3      &      a      4      &      a
|--------------------------------------|
|--------------------------------------|
|--------------------------------------|
|--------------------------------------|
|-7--------------------7---------------|
|--------0------0-------------0------0-|
|                                      |
|-t12~-p8p7p5h7h8------t12~-p8p7p5h7h8-|
|--------------------------------------|
|--------------------------------------|
|--------------------------------------|
|--------------------------------------|
|--------------------------------------|

  5      &      a      6      &      a
|--------------------------------------|
|--------------------------------------|
|---------------7--------------------5-|
|--------7--------------------5--------|
|-5--------------------3---------------|
|--------------------------------------|
|                                      |
|-t12~-p8p7p5h7h8------t12~-p8p7p5h7h8-|
|--------------------------------------|
|--------------------------------------|
|--------------------------------------|
|--------------------------------------|
|--------------------------------------|

  1      &      a      2      &      a
|--------------------------------------|
|--------------------------------------|
|--------------------------------------|
|--------------------------------------|
|-7--------------------7---------------|
|--------0------0-------------0------0-|
|                                      |
|-t12~-p8p7p5h7h8------t12~-p8p7p5h7h8-|
|--------------------------------------|
|--------------------------------------|
|--------------------------------------|
|--------------------------------------|
|--------------------------------------|

  3      &      a      4      &      a
|--------------------------------------|
|--------------------------------------|
|--------------------------------------|
|--------------------------------------|
|-7--------------------7---------------|
|--------0------0-------------0------0-|
|                                      |
|-t12~-p8p7p5h7h8------t12~-p8p7p5h7h8-|
|--------------------------------------|
|--------------------------------------|
|--------------------------------------|
|--------------------------------------|
|--------------------------------------|

  5      &      a      6      &      a
|--------------------------------------|
|--------------------------------------|
|---------------7--------------------5-|
|--------7--------------------5--------|
|-5--------------------3---------------|
|--------------------------------------|
|                                      |
|-t12~-p8p7p5h7h8------t12~-p8p7p5h7h8-|
|--------------------------------------|
|--------------------------------------|
|--------------------------------------|
|--------------------------------------|
|--------------------------------------|

  1      &      a      2      &      a
|--------------------------------------|
|--------------------------------------|
|--------------------------------------|
|--------------------------------------|
|-7--------------------7---------------|
|--------0------0-------------0------0-|
|                                      |
|-t12~-p8p7p5h7h8------t12~-p8p7p5h7h8-|
|--------------------------------------|
|--------------------------------------|
|--------------------------------------|
|--------------------------------------|
|--------------------------------------|

  3      &      a      4      &      a
|--------------------------------------|
|--------------------------------------|
|--------------------------------------|
|--------------------------------------|
|-7--------------------7---------------|
|--------0------0-------------0------0-|
|                                      |
|-t12~-p8p7p5h7h8------t12~-p8p7p5h7h8-|
|--------------------------------------|
|--------------------------------------|
|--------------------------------------|
|--------------------------------------|
|--------------------------------------|

  5      &      a      6      &      a
|--------------------------------------|
|--------------------------------------|
|---------------7--------------------5-|
|--------7--------------------5--------|
|-5--------------------3---------------|
|--------------------------------------|
|                                      |
|-t12~-p8p7p5h7h8------t12~-p8p7p5h7h8-|
|--------------------------------------|
|--------------------------------------|
|--------------------------------------|
|--------------------------------------|
|--------------------------------------|

  1      &      a      2      &      a
|--------------------------------------|
|--------------------------------------|
|--------------------------------------|
|--------------------------------------|
|-7--------------------7---------------|
|--------0------0-------------0------0-|
|                                      |
|-t12~-p8p7p5h7h8------t12~-p8p7p5h7h8-|
|--------------------------------------|
|--------------------------------------|
|--------------------------------------|
|--------------------------------------|
|--------------------------------------|

  3      &      a      4      &      a
|--------------------------------------|
|--------------------------------------|
|--------------------------------------|
|--------------------------------------|
|-7--------------------7---------------|
|--------0------0-------------0------0-|
|                                      |
|-t12~-p8p7p5h7h8------t12~-p8p7p5h7h8-|
|--------------------------------------|
|--------------------------------------|
|--------------------------------------|
|--------------------------------------|
|--------------------------------------|

  5      &      a      6      &      a
|--------------------------------------|
|--------------------------------------|
|---------------7--------------------5-|
|--------7--------------------5--------|
|-5--------------------3---------------|
|--------------------------------------|
|                                      |
|-t12~-p8p7p5h7h8------t12~-p8p7p5h7h8-|
|--------------------------------------|
|--------------------------------------|
|--------------------------------------|
|--------------------------------------|
|-------------End-Verse-III-(fade-out)-|


Full Score Arrangement:
Intro:     4x
Verse:     8x
Riff:      8x
Verse:     8x
Riff:      8x
Verse II: 20x
Verse III: 1x

*Performance note:
"Shuffle rhythm throughout"

  Visit MetalTabs.com for more metal tablature

bottom separator

Contact Us | Privacy Policy | Disclaimer | Legal Notice
Copyright © 2001-2014 MetalTabs.com. All Rights Reserved.