top separator

Home

Forum

What's New

Submit a Tab

FAQ

Links

Contact Us

Link to Us

MuSpy.com

MetalTabs.com logo

Bands

0-9

A

B

C

D

E

F

G

H

I

J

K

L

M

N

O

P

Q

R

S

T

U

V

W

X

Y

Z

Search

What

Where
 

Mithotyn - "Imprisoned" Guitar Tab

Plain Text Version
More Mithotyn Tabs

Hits: 2673
Updated: 2006-10-31 07:03:41

 

By:

Daniil

sendpm.gif

email.gif

Important note
This tab is available online because we obtained explicit permission from Mithotyn or their label.


#----------------------------------PLEASE NOTE---------------------------------#
#This file is the author's own work and represents their interpretation of the #
#song. You may only use this file for private study, scholarship, or research. #
#Unless specified otherwise, this is NOT an official tab from the band members.#
#------------------------------------------------------------------------------#

  Visit MetalTabs.com for more metal tablature
  
THIS IS UPDATE OF MY PREVIOUS TAB
=================================

MITHOTYN-Imprisoned
Gathered Around The Oaken Table-1999
Copyright Invasion Records
Transcribed by Daniil Laletin
e-mail: dlaletin@mail.ru
version 2.0 September 2006

All corrections are welcome.

 " - tremolo
 / - slide down
 \ - slide up
 . - palm mute
 ~ - long sound
 x - rest
 p - pull off
 h - hammer on
 tr - trill
 () - ghost note, sustained note
 * - artificial harmonics
 b - bend

 Tuning from low to high: D G C F A D

================================

 Riff 1a
|---------------------------------------|
|---------------------------------------|
|---------------------------------------|
|-9999-----9999----7777-----------------|gtr 1
|-7777-10--7777-9--5555-7-5-4-5-7-5-4-7-|
|-------8-------7-------5-3-2-3-5-3-2-5-|
|                           . . . . .
|---------------------------------------|
|---------------------------------------|
|---------------------------------------|
|-9999--5--9999-4--7777-----------------|gtr 2
|-7777--3--7777-2--5555-7-5-4-5-7-5-4-7-|
|-0000--3--0000-2--5555-5-3-2-3-5-3-2-5-|
                            . . . . .


 Riff 1b
|---------------------------------------|
|---------------------------------------|
|---------------------------------------|
|-9999-----9999----7777-----------------|gtr 1
|-7777-10--7777-9--5555-7-5-4-5-7-5-4-7-|
|-------8-------7-------5-3-2-3-5-3-2-5-|
|                           . . . . .
|---------------------------------------|
|---------------------------------------|
|---------------------------------------|
|-9-----5--9----4--7--------------------|gtr 2
|-7-----3--7----2--5----7-5-4-5-7-5-4-7-|
|-0-----3--0----2--5----5-3-2-3-5-3-2-5-|
                            . . . . .



 Riff 2
|--------------------------------------------------------|
|--------------------------------------------------------|
|--------------------------------------------------------|
|---------------7"-----------2"------7"-----------2--4---|gtr 1
|-2"-----5"-----5"--------2"-0"------5"--------5--0--2---|
|-0"-----3"---------------0"-------------------3---------|
|
|--------------------------------------------------------|
|--------------------------------------------------------|
|----------------------------7---------------------------|
|----5-7-9--7-5-7p5-4h5p4-------10-9-7--9-10-9-7-5--4tr5-|gtr 2
|-7-----------------------7------------------------------|
|--------------------------------------------------------|

|----------------------------------------------------------------------|
|----------------------------------------------------------------------|
|-----------------------------9-7---------------7----------------------|
|---------------7"----------------10-9-10--9-10---10-9-7-7h9p7-5h7p5p4-|gtr 1
|-2"-----5"-----5"--------2"-------------------------------------------|
|-0"-----3"---------------0"-------------------------------------------|
|
|----------------------------------------------------------------------|
|----------------------------------------------------------------------|
|----------------------------------------------------------------------|
|----5-7-9--7-5-7p5-4h5p4----10-9--7-5--7--5--7-9--7-5-----------------|gtr 2
|-7-----------------------7-----------------------------5--7-\---------|
|----------------------------------------------------------------------|



 Riff 3a
|-----------------------------13-11-13~-|
|---------------------------------------|
|-------------9-7-9~---9-7-9------------|
|---------------------------------------|gtr 1
|-2-22-4-5-55---------------------------|
|-0-00-2-3-33---------------------------|
|      .
|---------------------------------------|
|---------------------------------------|
|-------------9-7-9~--------------------|
|---------------------10-9-10-9--7-9-10-|gtr 2
|-2-22-4-5-55---------------------------|
|-0-00-2-3-33---------------------------|
       .

|-13-11-13~---------------------------|
|-------------------------------------|
|--------------/9~--9/11~-11/12-12/14-|
|-------------------------------------|gtr 1
|-------------------------------------|
|-------------------------------------|
|
|-------------------------------------|
|-------------------------------------|
|-------------------------------------|
|--9-7------------------------/5-4-0--|gtr 2
|------10-9-7-5-3~--3h5p3-2-----------|
|-------------------------------------|



 Riff 3b
|-----------------------------13-11-13~-|
|---------------------------------------|
|-------------9-7-9~---9-7-9------------|
|---------------------------------------|gtr 1
|-2-22-4-5-55---------------------------|
|-0-00-2-3-33---------------------------|
|      .
|---------------------------------------|
|---------------------------------------|
|-------------9-7-9~--------------------|
|---------------------10-9-10-9--7-9-10-|gtr 2
|-2-22-4-5-55---------------------------|
|-0-00-2-3-33---------------------------|
       .

|-13-11-13~---------------------------|
|-------------------------------------|
|-------------------------------------|
|-------------------------------------|gtr 1
|--------------/7~---7/9~-9/10-10/12--|
|-------------------------------------|
|
|-------------------------------------|
|-------------------------------------|
|-------------------------------------|
|--9-7------------------------/5-4-0--|gtr 2
|------10-9-7-5-3~--3h5p3-2-----------|
|-------------------------------------|



 Riff 4
|---------------------------------------------------------|
|----------------------------------/8-10------------------|
|---------------------/9-7--------------------------------|
|--------/9-7----------------------------------------7777-|gtr 1
|-2-2-2--------2-2-2--------2-2-2---------5-4-5-7-9--5555-|
|-0-0-0--------0-0-0--------0-0-0---------3-2-3-5-7-------|
| . . .        . . .        . . .
|---------------------*-*-----------7-10------------------|
|---------*-*---------8-10----------*-*-------------------|
|---------7-9---------------------------------------------|
|----------------------------------------------------7777-|gtr 2
|-2-2-2--------2-2-2--------2-2-2---------5-4-5-7-9--5555-|
|-0-0-0--------0-0-0--------0-0-0---------3-2-3-5-7-------|
  . . .        . . .        . . .


 Riff 5
|--------------------------------------------------------------------|
|--------------------------------------------------------------------|
|--------------------------------------------------------------------|
|------------7--4----------------7-------------9--7-------------7777-|gtr 1
|-2222-2222--5--2--2222-2222--5--5--2222-2222--7--5--5-4-5-7-9--5555-|
|-0000-0000--5--2--0000-0000--3--5--0000-0000--7--5--3-2-3-5-7-------|
|                                                    . . . .
|--------------------------------------------------------------------|
|--------------------------------------------------------------------|
|--------------------------------------------------------------------|
|------------7--4----------------7-------------9--7-------------7777-|gtr 2
|-2222-2222--5--2--2222-2222--5--5--2222-2222--7--5--5-4-5-7-9--5555-|
|-0000-0000--5--2--0000-0000--3--5--0000-0000--7--5--3-2-3-5-7-------|
                                                     . . . .


 Riff 6a
|---------------------------------------|
|---------------------------------------|
|---------------------------------------|
|-2------------------(2)----------------|gtr 1
|-2------------------(2)----------------|
|-0------------------(0)----------------|
|
|---------------------------------------|
|---------------------------------------|
|---------------------------------------|
|-9--9-10-9h10p9p7\5--5-7--7-5-4h5p4-2--|gtr 2
|---------------------------------------|
|---------------------------------------|

|--------------------------------|
|--------------------------------|
|--------------------------------|
|----------------5-4--8--5--8--4-|gtr 1
|----------------3-2--6--3--6--2-|
|----------------.-.--.--.--.--.-|
|
|--------------------------------|
|--------------------------------|
|--------------------------------|
|-----------------------------77-|gtr 2
|-5--3-5-7-5-7-9-7779101099910..-|
|----------------.....-.-...-.---|



 Riff 6b
|--------------------------------------|
|--------------------------------------|
|-4-----4----6----7--------------------|
|-2-----2----4----5---9---7---8---9--8-|gtr 1
|---------------------7---5---6---7--6-|
|--------------------------------------|
|
|--------------------------------------|
|--------------------------------------|
|--------------------------------------|
|-9--9-10-9h10p9p7\5--5-7--7-5-4h5p4-2-|gtr 2
|--------------------------------------|
|--------------------------------------|

|-------------------------------|
|-------------------------------|
|-------------------------------|
|---2-----4-----5-4--8--5--8--4-|gtr 1
|---0-----2-----3-2--6--3--6--2-|
|-------------------------------|
|
|-------------------------------|
|-------------------------------|
|-------------------------------|
|----------------------------77-|gtr 2
|-5-3-5-7-5-7-9-7779101099910..-|
|---------------.............---|




 Keyboard part under riff 6b
|----------------------------------------------|
|-12--12-13-12h13p12p10\8--8-10--10-8-7h8p7-5--|
|----------------------------------------------|
|----------------------------------------------|
|----------------------------------------------|
|----------------------------------------------|

|---------------------------------|
|------------------------------10-|
|-7-5-7-9-7-9-11-9-11-12-11-12----|
|---------------------------------|
|---------------------------------|
|---------------------------------|


 Ending chord after riff 6b
|-------|
|-------|
|-------|
|-2~~---|gtr 1
|-2~~---|
|-0~~---|
|
|-------|
|-------|
|--~~---|
|-9-----|gtr 2
|-------|
|-------|
|
|-------|
|-12----|
|-------|
|-------|keyboard
|-------|
|-------|

  Visit MetalTabs.com for more metal tablature

bottom separator

Contact Us | Privacy Policy | Disclaimer | Legal Notice
Copyright © 2001-2014 MetalTabs.com. All Rights Reserved.