top separator

Home

Forum

What's New

Submit a Tab

FAQ

Links

Contact Us

Link to Us

MetalTabs.com logo

Bands

0-9

A

B

C

D

E

F

G

H

I

J

K

L

M

N

O

P

Q

R

S

T

U

V

W

X

Y

Z

Search

What

Where
 

Mithotyn - "Guided by history" Guitar Tab

Plain Text Version
More Mithotyn Tabs

Hits: 2466
Updated: 2006-10-31 06:57:09

 

By:

Daniil

sendpm.gif

email.gif

Important note
This tab is available online because we obtained explicit permission from Mithotyn or their label.


#----------------------------------PLEASE NOTE---------------------------------#
#This file is the author's own work and represents their interpretation of the #
#song. You may only use this file for private study, scholarship, or research. #
#Unless specified otherwise, this is NOT an official tab from the band members.#
#------------------------------------------------------------------------------#

  Visit MetalTabs.com for more metal tablature
  
THIS IS UPDATE OF MY PREVIOUS TAB
=================================

MITHOTYN-Guided By History
Gathered Around The Oaken Table-1999
Copyright Invasion Records
Transcribed by Daniil Laletin
e-mail: dlaletin@mail.ru
version 1.0 June 2006

All corrections are welcome.

 " - tremolo
 / - slide down
 \ - slide up
 . - palm mute
 ~ - long sound
 x - rest
 p - pull off
 h - hammer on
 tr - trill
 () - ghost note, sustained note
 * - artificial harmonics
 b - bend

 Tuning from low to high: D G C F A D

================================

 Intro
|--------------------------------------------------------------------|
|--------------------------------------------------------------------|
|--------------------------------------------------------------------|
|------------------------------4-5-------------------------------5-4-|gtr 1
|-7----7-5-7--3-5--7----7-5-7--2-3--7----7-5-7--3-5--2-----5-7-5-3-2-|
|-5-55-5-3-5--1-3--5-55-5-3-5--2-3--5-55-5-3-5--1-3--0-000-3-5-3-----|
|   .. . . .         .. . . .         .. . . .         ...
|--------------------------------------------------------------------|
|--------------------------------------------------------------------|
|--------------------------------------------------------------------|
|------------------------------4-5-------------------------------5-4-|gtr 2
|-------------3-5--------------2-3--------------3-5--2-----5-7-5-3-2-|
|-------------1-3--------------2-3--------------1-3--0-000-3-5-3-----|
                                                       ...


 Riff 1
|----------------------------------------|
|----------------------------------------|
|----------------------------------------|
|--------------------------------4-5-----|gtr 1
|-7----7-5-7--3-5----7----7-5-7--2-3-----|
|-5-55-5-3-5--1-3----5-55-5-3-5--2-3-----|
|   ..                 ..            hp
|--------------------------------7-8-787-|
|------10810------8-------10810----------|
|-------------7-9------------------------|
|-----------~------------------~-------~-|gtr 2
|-0------------------0-------------------|
|----------------------------------------|

|-------------------------------------|
|-------------------------------------|
|-------------------------------------|
|---------------------------------5-4-|gtr 1
|-7----7-5-7--3-5----2------5-7-5-3-2-|
|-5-55-5-3-5--1-3----0--000-3-5-3-----|
|   ..                  ...
|-------------------------------------|
|------10810------8-------------------|
|-------------7-9----10-9109-7----7-9-|
|-----------~------~------------9-----|gtr 2
|-0-----------------------------------|
|-------------------------------------|



 Riff 2        hp                 hh
|----8-7-8--7-5753----8-7-8--10-781012-|
|--------------------------------------|
|--------------------------------------|
|--------------------------------------|gtr 1
|-x----------------x-------------------|
|--------------------------------------|
|
|----------------------------7-8-7h8p7-|
|----10810------8-----10810------------|
|-----------7-9------------------------|
|--------------------------------------|gtr 2
|-0----------------0-------------------|
|--------------------------------------|
               hp
|----8-7-8--7-5753--------------------hp---hp-|
|-------------------------5---hp---hp-565-353-|
|-------------------4-5р7---7-575-454---------|
|---------------------------------------------|gtr 1
|-x-------------------------------------------|
|---------------------------------------------|
|
|---------------------------------------------|
|----10810-------8----------------------------|
|------------7-9------10---9h10p9p7----7---9--|
|-----------------------------------9---------|gtr 2
|---------------------------------------------|
|-0-------------------------------------------|



 Riff 3
|------------------------------------------------|
|------------------------------------------------|
|------------------------------------------------|
|--------5-5-------------------5-5--7------------|gtr 1
|-000000-3-3-000000-5-2-000000-3-3--5-5-------7\-|
|-......-.-.-......-3-0-......-.-.----3-5-7-8----|
|                                       . . .
|------------------------------------------------|
|------------------------------------------------|
|------------------------------------------------|
|--------5-5-------------------5-5--7------------|gtr 2
|-000000-3-3-000000-5-2-000000-3-3--5-5-------7\-|
|-......-.-.-......-3-0-......-.-.----3-5-7-8----|
                                        . . .


 Keyboard line under Riff 3
|------------------------------------------------------------5-|
|-5-55--------5--5-55-----8--5--5-55-------5---------------5---|
|------7-5-7----------7-5------------7-5-7----7--5-4-----5-----|
|----------------------------------------------------5-7-------|
|--------------------------------------------------------------|
|--------------------------------------------------------------|



 Riff 4 - very fast tremolo       x2
|-----------------------------------|
|-----------------------------------|
|-55----44----55--99997777-5h7p5-4--|
|-----------------------------------|gtr 1
|---0000--0000--00------------------|
|-----------------------------------|
|
|-----------------------------------|
|-----------------------------------|
|-----------------------------------|
|-----------------------------------|gtr 2
|-330000220000330077775555-3h5p3-2--|
|-----------------------------------|

                                  x1
|-----------------------------------|
|-66----55----66--10108888-6h8p6-5--|
|-----------------------------------|
|---0000--0000----------------------|gtr 1
|-----------------------------------|
|-----------------------------------|
|
|-----------------------------------|
|-----------------------------------|
|-----------------------------------|
|-330000220000330077775555-3h5p3-2--|gtr 2
|-----------------------------------|
|-----------------------------------|

                            x1
|-----------------------------|
|-----------------------------|
|-------------5h7p5p4---------|
|-6---7---9-----------7h9p7p6-|gtr 1
|--777-777-77-----------------|
|-----------------------------|
|
|-----------------------------|
|-----------------------------|
|-----------------------------|
|-----------------------------|gtr 2
|-------------5-------6-------|
|-40005000700-3-------4-------|



 Riff 5a
|---------------------------------------|
|---------------------------------------|
|----------------------------5-4-2-0-2--|
|---------------------------------------|gtr 1&2
|-7----7----7----7-----3--5-------------|
|-5-55-5-55-5-55-5-55--1--3-------------|
    ..   ..   ..   ..
|------------------------------|
|------------------------------|
|------------------------------|
|---------------------5--7--9--|gtr 1&2
|-7----7----7----7----3--5--7--|
|-5-55-5-55-5-55-5-55-3--5--7--|
    ,,   ,,   ,,   ,,

|-------|----|
|-------|----|
|-------|----|at last time don't play this chord
|-5--7--|----|gtr 1&2
|-3--5--|--2-|
|-3--5--|--0-|
           .


 Riff 6
|----------------------------------------|
|----------------------------------------|
|----------------------------------------|
|----------------------------------------|gtr 1&2
|-0"---3-5-7-5-3-0-2-3-0"---3-5-7-5-3-7--|
|----------------------------------------|

|--------------------------------------|
|--------------------------------------|
|--------------------------------------|
|--------------------------------------|gtr 1&2
|------0-2-3-2-0-5----------------3p0--|
|-3"-----------------0"---3p0-5p0------|



 Before Riff 5b play this fill
 after Riff 3
|-----------------------------|
|-----------------------------|
|-----------------------------|
|-----------------------------|gtr 1&2
|-------7-------7-----------7-|
|-5-7-8---5-7-8---8-7-5-7-8---|
|
|-------5-------5-----------5-|
|-----5-------5---5-------5---|
|---5-------5-------5---5-----|
|-7-------7-----------7-------|keyboard
|-----------------------------|
|-----------------------------|



 Riff 5b
|-------------------------------------|
|-------------------------------------|
|-------------------------------------|
|-------------------------------------|gtr 1&2
|-7----7----7----7-----3--5-----------|
|-5-55-5-55-5-55-5-55--1--3-----------|
|   ..   ..   ..   ..


|------------------------------|
|------------------------------|
|------------------------------|
|---------------------5--7--9--|gtr 1&2
|-7----7----7----7----3--5--7--|
|-5-55-5-55-5-55-5-55-3--5--7--|
    ..   ..   ..   ..

|-----------|
|-----------|
|-----------|
|-5--7------|gtr 1&2
|-3--5----2-|
|-3--5----0-|
          .


 Ending riff
|--------------------------------------|
|------------------------------------*-|
|----------------------------5-4-2---2-|
|----------------------------------5---|gtr 1&2
|-7----7----7----7-----3--5------------|
|-5-55-5-55-5-55-5-55--1--3------------|
    ..   ..   ..   ..

  Visit MetalTabs.com for more metal tablature

bottom separator

Contact Us | Privacy Policy | Disclaimer | Legal Notice
Copyright © 2001-2014 MetalTabs.com. All Rights Reserved.