top separator

Home

Forum

What's New

Submit a Tab

FAQ

Links

Contact Us

Link to Us

MetalTabs.com logo

Bands

0-9

A

B

C

D

E

F

G

H

I

J

K

L

M

N

O

P

Q

R

S

T

U

V

W

X

Y

Z

Search

What

Where
 

Raise Hell - "The March of Devil's Soldiers" Guitar Tab

Plain Text Version
More Raise Hell Tabs

Hits: 3143
Rated: 2.00 out of 5 (2 votes)
Updated: 2004-12-01 10:55:34

 

By:

Zombie Clown

sendpm.gif

email.gif

Important note
This tab is available online because we obtained explicit permission from Raise Hell or their label.


#----------------------------------PLEASE NOTE---------------------------------#
#This file is the author's own work and represents their interpretation of the #
#song. You may only use this file for private study, scholarship, or research. #
#Unless specified otherwise, this is NOT an official tab from the band members.#
#------------------------------------------------------------------------------#

  Visit MetalTabs.com for more metal tablature
  
Band: Raise Hell
Album: Holy Target
Song: The March of Devil's Soldiers

Copyright (c)  (Nuclear Blast) (1998)
Version 1.0 - (2004)

Transcribed By: Zombie Clown
Email:          bobnoboborjimnobobgoat@yahoo.com


.  - palm mute           /  - slide up to
\  - slide down to       ~  - vibrato
h  - hammer on           b  - Bend
p  - pull off            Suffixes for bend
t  - tap                 f  - full bend    h - half bend
ph - pinched harmonic    q  - quarter bend t - tap bend
*  - see comment         ^  - Hold bend    r release bend
x  - Stuccatto           ~  - vibrato bend
,  - slight palm mute    () - ghost note, sustained note
"  - tremolo note        <> - Trill

Tunning E A D G B E

intro

guitars 1 and 2

|---------------------------------|
|---------------------------------|
|---------------------------------|
|-7--7--7-7-7-7-7-5--5--5-5-5-5-5-|
|-5--5--5-5-5-5-5-3--3--3-3-3-3-3-|
|---------------------------------|

then guitar 1 plays this

|-------------------|------------------------|
|---10-9-8--7h8--10-|-------------------10---|
|-9-----------------|-9bh*-r-9-8-7-6-7-------|
|-------------------|------------------------|
|-------------------|------------------------|
|-------------------|------------------------|
*very fast
play twice then

|-------------------------------|
|-------------------------------|
|-7--------5--------------------|
|----6-5-----4--3---5--5h6-5----| x2
|-------------------------------|
|-------------------------------|

                         1          2
|-----------------:||----------|---------|
|-----------------:||----------|---------|
|-7--------5------:||--5-5h7-5-|-5-5p3-5-|
|----6-5------4-3-:||----------|---------|
|-----------------:||----------|---------|
|-----------------:||----------|---------|

repeat some of the earlier riffs then

|------------------------9--------12-12"-|
|----------------7---10------------------|
|----------7-8-9-------------------------|
|-5-6-7-9--------------------------------|
|----------------------------------------|
|----------------------------------------|

for this last riff, guitar 2 plays this:

|---------------------------|
|---------------------------|
|---------------------------|
|-7-7-7-7-5-5-5-5-7-7-7-7-5-|
|-5-5-5-5-3-3-3-3-5-5-5-5-3-|
|---------------------------|
  x x x x x x x x x x x x x

  Visit MetalTabs.com for more metal tablature

bottom separator

Contact Us | Privacy Policy | Disclaimer | Legal Notice
Copyright © 2001-2014 MetalTabs.com. All Rights Reserved.