top separator

Home

Forum

What's New

Submit a Tab

FAQ

Links

Contact Us

Link to Us

MetalTabs.com logo

Bands

0-9

A

B

C

D

E

F

G

H

I

J

K

L

M

N

O

P

Q

R

S

T

U

V

W

X

Y

Z

Search

What

Where
 

Secretion - "Our Daily Prayer" Guitar Tab

Plain Text Version
More Secretion Tabs

Hits: 2122
Updated: 2004-12-01 10:55:10

 

By:

Zombie Clown

sendpm.gif

email.gif

Important note
We did our best to reach Secretion and ask for their permission to publish this tab. Unfortunately they did not respond to our requests or we could not find a way to contact them. This tab is available online until Secretion tells us to take it down.


#----------------------------------PLEASE NOTE---------------------------------#
#This file is the author's own work and represents their interpretation of the #
#song. You may only use this file for private study, scholarship, or research. #
#Unless specified otherwise, this is NOT an official tab from the band members.#
#------------------------------------------------------------------------------#

  Visit MetalTabs.com for more metal tablature
  
Band: Secretion
Album: Reborn
Song:  Our Daily Prayer

Copyright (c)  (Talking Trash Records) (2002)
Version 1.0 - (2004)

Transcribed By: Zombie Clown
Email:          bobnoboborjimnobobgoat@yahoo.com


.  - palm mute           /  - slide up to
\  - slide down to       ~  - vibrato
h  - hammer on           b  - Bend
p  - pull off            Suffixes for bend
t  - tap                 f  - full bend    h - half bend
ph - pinched harmonic    q  - quarter bend t - tap bend
*  - see comment         ^  - Hold bend    r release bend
x  - Stuccatto           ~  - vibrato bend
,  - slight palm mute    () - ghost note, sustained note
"  - tremolo note        <> - Trill

Tunning D A D G B E

intro

|-----------------|-----------------|-----|
|-----------------|-----------------|-----|
|-----------------|-----------------|-----|
|-----------------|-----------------|-----|
|-0-----2-----6-7-|-0-----2-----6-7-|-5-4-|
|-0-0-0-2-0-0-6-7-|-0-0-0-2-0-0-6-7-|-5-4-|
    . .   . .         . .   . .

verse 1

|-----------------------------------|
|-----------------------------------|
|-----------------------------------|
|-----------------------------------|
|-0-3-2-1-0-3-4-5-0-3-2-1-0-3-5-4-3-|
|-0-3-2-1-0-3-4-5-0-3-2-1-0-3-5-4-3-|
  . . . . x x x x . . . . . . . . .

chorus 1

|-----------------------------|
|-----------------------------|
|-----------------------------|
|-----------------------------|
|-------------------------6-7-|
|-0-0-0-0-0-0-0-0-0-0-0-0-6-7-|
  . . . . . . . . . . . .

ending

|-----------------------|
|-----------------------|
|-----------------------|
|-----------------------|
|-3-3-3-3-3-3-3-3-0-----|
|-3-3-3-3-3-3-3-3-0-----|
  . . . . . . . .

  Visit MetalTabs.com for more metal tablature

bottom separator

Contact Us | Privacy Policy | Disclaimer | Legal Notice
Copyright © 2001-2014 MetalTabs.com. All Rights Reserved.