top separator

Home

Forum

What's New

Submit a Tab

FAQ

Links

Contact Us

Link to Us

MetalTabs.com logo

Bands

0-9

A

B

C

D

E

F

G

H

I

J

K

L

M

N

O

P

Q

R

S

T

U

V

W

X

Y

Z

Search

What

Where
 

Darkthrone - "Rawness Obsolete" Guitar Tab

Plain Text Version
More Darkthrone Tabs

Hits: 4246
Rated: 1.50 out of 5 (2 votes)
Updated: 2004-12-01 10:50:52

 

By:

velzevul

sendpm.gif

email.gif

Important note
This tab is available online because we obtained explicit permission from Darkthrone or their label.


#----------------------------------PLEASE NOTE---------------------------------#
#This file is the author's own work and represents their interpretation of the #
#song. You may only use this file for private study, scholarship, or research. #
#Unless specified otherwise, this is NOT an official tab from the band members.#
#------------------------------------------------------------------------------#

  Visit MetalTabs.com for more metal tablature
  
=========================================================
    Comments and Corrections ---> lord_velzevul@bk.ru
=========================================================
Tuning: D A F C G D (~two steps lower from normal tuning)
=========================================================
                  band: DARKTHRONE
                  song: RAWNESS OBSOLETE
                 album: SARDONIC WRATH (2004)
             tabbed by: ^MorbiD^
                  data: November 2004
     shareware version: 1.0 alpha
=========================================================
... = listen cd for rhythm
[] = i'm not sure about this
~ = vibrato
=========================================================
Riff 1
D|---------------------------------------------|
A|---------------------------------------------|
F|---------------------------------------------|
C|-2...-----2...-[3\6-5-3-5]-2...-----2...-3-3-|
G|-0...-3-6-0...-[1\4-3-1-3]-0...-3-6-0...-1-1-|
D|------1-4-----------------------1-4----------|

Riff 2
|----------------------------------|
|----------------------------------|
|----------------------------------|
|-10-9...-10-9...-10-9...-10-[5-7]-|
|--8-7...--8-7...--8-7...--8-[3-5]-|
|----------------------------------|

Riff 3
|------------------------------|
|------------------------------|
|------------------------------|
|-----------------------5-5-56-|
|-5-7-6--5-7-6~--5-7-6--3-3-34-|
|------------------------------|

Riff 4(slow riff)
|---------------------------------|
|---------------------------------|
|---------------------------------|
|---------------------------------|
|------------------------4-4-4-4]-|
|-[3-5-4--3-5-4~--3-5-4--2-2-2-2]-|

  Visit MetalTabs.com for more metal tablature

bottom separator

Contact Us | Privacy Policy | Disclaimer | Legal Notice
Copyright © 2001-2014 MetalTabs.com. All Rights Reserved.