top separator

Home

Forum

What's New

Submit a Tab

FAQ

Links

Contact Us

Link to Us

MuSpy.com

MetalTabs.com logo

Bands

0-9

A

B

C

D

E

F

G

H

I

J

K

L

M

N

O

P

Q

R

S

T

U

V

W

X

Y

Z

Search

What

Where
 

Absorbed (NL) - "Sunset Bleeding" Guitar Tab

Plain Text Version
More Absorbed (NL) Tabs

Hits: 2416
Rated: 3.00 out of 5 (2 votes)
Updated: 2004-11-29 09:50:36

 

By:

Zombie Clown

sendpm.gif

email.gif

Important note
This tab is available online because we obtained explicit permission from Absorbed (NL) or their label.


#----------------------------------PLEASE NOTE---------------------------------#
#This file is the author's own work and represents their interpretation of the #
#song. You may only use this file for private study, scholarship, or research. #
#Unless specified otherwise, this is NOT an official tab from the band members.#
#------------------------------------------------------------------------------#

  Visit MetalTabs.com for more metal tablature
  
Band:  Absorbed
Album: Sunset Bleeding
Song: Sunset Bleeding

Copyright (c)  (Resurecte Records) (1999)
Version 1.0 - (2004)

Transcribed By: Zombie Clown
Email:          bobnoboborjimnobobgoat@yahoo.com


.  - palm mute           /  - slide up to
\  - slide down to       ~  - vibrato
h  - hammer on           b  - Bend
p  - pull off            Suffixes for bend
t  - tap                 f  - full bend    h - half bend
ph - pinched harmonic    q  - quarter bend t - tap bend
*  - see comment         ^  - Hold bend    r release bend
x  - Stuccatto           ~  - vibrato bend
,  - slight palm mute    () - ghost note, sustained note
"  - tremolo note        <> - Trill

Tunning E A D G B E

voice clip

intro

guitar 1
                 1,2,3        4
|------------:||------------|--------------|
|------------:||------------|--------------|
|-4-4--8-7-6-:||-4-4--8-7---|-4-4--8-7-----|
|------------:||----------5-|----------5ph-|
|------------:||------------|--------------|
|------------:||------------|--------------|

guitar 2
                  1,2,3       4
|------------:||------------|--------------|
|------------:||------------|--------------|
|------------:||------------|--------------|
|-7----------:||-7--------6-|-7---------9--|
|-5----------:||-5--------4-|-5---------7--|
|------------:||------------|--------------|
                          x             x

verse part 1

guitars 1 and 2

|-----------------------------|
|-----------------------------|
|-----------------------------|
|-----------------------------|
|-3-0--0-2-0--0-4-0--0-2-4--4-|
|-3-0--0-2-0--0-4-0--0-2-4--4-|

chorus part 1

guitars 1

|---------|--------|---------------|---------------|
|---------|--------|---------------|---------------|
|---------|--------|---------------|---------------|
|---------|--------|---------------|---------------|
|-7-------|-5--8-8-|---------------|---5-----8-8---|
|-5-------|-3--6-6-|-pick scrape-\-|---3-----6-6---|

guitar 2

|---------|--------|---------------|---------------|
|---------|--------|---------------|---------------|
|---------|--------|---------------|---------------|
|---------|--------|---------------|---------------|
|-7-------|-5--8-8-|-7-------------|---------------|
|-5-------|-3--6-6-|-5-------------|-pick scrape-\-|

verse part 2

guitar 1

|-------------|------------|
|-------------|------------|
|-------------|------------|
|-------------|------------|
|-4-4--8-7-6--|-4-4--8-7---|
|-------------|----------5-|

guitar 2

|-------------|------------|
|-------------|------------| after a while (listen for when)
|-------------|------------| do a pick scrape
|-------------|------------|
|-5-----------|------------|
|-3-----------|------------|

verse part 3

guitar 1

                 1,2,3        4
|------------:||------------|--------------|
|------------:||------------|--------------|
|-4-4--8-7-6-:||-4-4--8-7---|-4-4--8-7-----|
|------------:||----------5-|----------5ph-|
|------------:||------------|--------------|
|------------:||------------|--------------|

guitar 2
                  1,2,3,4
|------------:||------------|
|------------:||------------|
|------------:||------------|
|------------:||------------|
|-4-4--8-7-6-:||-4-4--8-7---|
|------------:||----------5-|

verse part 4

guitars 1 and 2

|--------------------------|
|--------------------------|
|--------------------------|
|--------------------------|
|-3--1-1-3--2-2-3--1-1-3/5-|
|-3--1-1-3--2-2-3--1-1-3/5-|
  .      .      .

ending

guitars 1 and 2

|---------|
|---------|
|---------|
|---------|
|-3-3-3-0-|
|-3-3-3-0-|
  . . . x

  Visit MetalTabs.com for more metal tablature

bottom separator

Contact Us | Privacy Policy | Disclaimer | Legal Notice
Copyright © 2001-2014 MetalTabs.com. All Rights Reserved.