top separator

Home

Forum

FAQ

Contact Us

Link to Us

MetalTabs.com logo

Bands

0-9

A

B

C

D

E

F

G

H

I

J

K

L

M

N

O

P

Q

R

S

T

U

V

W

X

Y

Z

Cannibal Corpse - "Cyanide Assassin" Guitar Tab

Plain Text Version
More Cannibal Corpse Tabs

Hits: 5785
Rated: 4.14 out of 5 (7 votes)
Updated: 2004-11-29 09:45:33

By:

hot spicy


#----------------------------------PLEASE NOTE---------------------------------#
#This file is the author's own work and represents their interpretation of the #
#song. You may only use this file for private study, scholarship, or research. #
#Unless specified otherwise, this is NOT an official tab from the band members.#
#------------------------------------------------------------------------------#

  Visit MetalTabs.com for more metal tablature
  
Band:  Cannibal Corpse
Album: The Wretched Spawn
Song:  Cyanide Assassin

Copyright (c) Metal Blade 2004
Version 1.0  26.11.2004

Transcribed By: Hot Spicy
Email:          unchallengedhate.de / japanische-kampfhoerspiele.de
      (privat): robert.n74@web.de

.  - palm mute           /  - slide up to
\  - slide down to       ~  - vibrato
h  - hammer on           b  - Bend
p  - pull off            Suffixes for bend
t  - tap                 f  - full bend    h - half bend
ph - pinched harmonic    q  - quarter bend t - tap bend
*  - see comment         ^  - Hold bend    r release bend
x  - Stuccatto           ~  - vibrato bend
,  - slight palm mute    () - ghost note, sustained note
"  - tremolo note        <> - Trill

Tuning 6 half steps down: Bb-Eb-Ab-Db-F-Bb

guitar one =  left channel
guitar two = right channel

ATTENTION:
This one is very tricky so i wrote down the
drumtakes for a better understanding how
this is working...

X = Snare Drum
O = Bass  Drum

both guitars 1 time (intro)
riff A
|-----XXXXO---------XXXXO-----|
|-----------------------------|
|-----------------------------|
|-----------------------------|
|-9---8-/-11----9---8-/-11----|
|-7---6-/--9----7---6-/--9----|

both guitars 1 time
RIFF B1
|-O--X--O--X--O--X--O--X--O--X--O--X--O--X--O--X--
|-------------------------------------------------
|-------------------------------------------------
|-------13\---------------------------------------
|-12\9-11\---12\9-9\-8--8-----11\9--9\-8--8-----
|-10\7--------10\7-7\-6--6------9\7--7\-6--6-----

 -O--X--O--X--O--X--O--X--O--X--O--X--O--X--O--X--
 -------------------------------------------------
 -------------------------------------------------
 -------------------------------------------------
 -11/12-12----11\10-10\9-9\-8--8-----11----9\-8--
 --9/10-10-----9\-8--8\7-7\-6--6------9----7\-6--


 -O--X--O--X--O--X--O--X--O--X--O--X--O--X--O--X--
 -------------------------------------------------
 -------------------------------------------------
 -------------------13----------------------------
 -8-----11----12----11----12\9-9\8---8-----11\9--
 -6------9----10----------10\7-7\6---6------9\7--

 -O--X--O--X--O--X--O--X--O--X--O--X--O--X--O--X--
 -------------------------------------------------
 -------------------------------------------------
 -------------------------------------------------
 -9\8---8-----11/12-12----11\9-10\9-10\9-8--/--
 -7\6---6------9/10-10-----9\7--8\7---8\7-6--/--

guitar one 1 time
RIFF B2
 -O--X--O--X--O--X--O--X--O--X--O--X--O--X--O--X--
 -------------------------------------------------
 -------------------------------------------------
 -------------10\9--9-----8/-9--------------------
 -11----9------8\7--7-----6/-7--9-----8--/--11----
 --9----7-----------------------7-----6--/---9----

 -O--X--O--X--O--X--
 -------------------
 -------------------
 -------------------
 -9-----8-----7-----
 -7-----6-----5-----

guitar two 1 time
RIFF B2
 -O--X--O--X--O--X--O--X--O--X--O--X--O--X--O--X--
 -------------------------------------------------
 -------------------------------------------------
 -------------------------------------------------
 -------------11\10-10----9h10--------------------
 -12121210----------------------7-----6/----121212

 -O--X--O--X--O--X--
 -------------------
 -------------------
 -------------------
 -------------------
 -1010109-9-9-8-8-8-

both guitars 2 times
RIFF B3 (VOCAL PART)

 -O--X--O--X--O--X--O--X--O--X--O--X--O--X--O--X--
 -------------------------------------------------
 -------------------------------------------------
 -------------------------10\9--------------------
 -6\-5--5-----8-----9\-8---8\7-9\-8-6\-5--5-----
 -4\-3--3-----6-----7\-6--------7\-6-4\-3--3-----

 -O--X--O--X--O--X--O--X--
 -------------------------
 -------------------------
 -------------------------
 -8-----9\-8-8\-7--7\-6--
 -6-----7\-6-6\-5--5\-4--

both guitars 2 times
RIFF C
 -O--X--O--X--O--XXXXX------X-----X-----|
 ---------------------------------------|
 ---------------------------------------|
 -------------10\99/12-----------------|
 -9\-8/-9/-----8\77/10-----10----11----|
 -7\-6/-7/-------------------8-----9----|

again RIFF B3 = 2 times
again RIFF C  = 4 times

both guitars 1 time
RIFF D1
 |-O------0-----0-------0-------0-------0----X--|
 |----------------------------------------------|
 |----------------------------------------------|
 |----------------------------------------------|
 |-6\5-5/8-3--4\3--3--4\3-3--4\3--3--4\3--3--|
 |-4\3-3/6-1--2\1--1--2\1-1--2\1--1--2\1--1--|
             .       .       .       .       .

guitar one 4 times
RIFF E
 |-O---X----O---X----O---X---O---X---
 |-----------------------------------
 |-6p0-10t0-6p0-10t0-4p0-8t0-4p0-8t0-
 |-----------------------------------
 |-----------------------------------
 |-----------------------------------

 -O---X----O---X----O---X----O---X----|
 -------------------------------------|
 -6p0-10t0-6p0-10t0-8p0-12t0-8p0-12t0-|
 -------------------------------------|
 -------------------------------------|
 -------------------------------------|
guitar two 4 times
RIFF E
 |-O---X----O---X----O---X----O---X----
 |-------------------------------------
 |-6p0-13t0-6p0-13t0-8p0-12t0-8p0-12t0-
 |-------------------------------------
 |-------------------------------------
 |-------------------------------------

 -O---X----O---X----O---X---O---X---|
 -----------------------------------|
 -6p0-10t0-6p0-10t0-4p0-8t0-4p0-8t0-|
 -----------------------------------|
 -----------------------------------|
 -----------------------------------|

both guitars 1 time
RIFF F
 |-------------------------------------------------
 |-------------------------------------------------
 |-7\------------6-7\------------------7\---------
 |-5\---------6--4-5\----------4--3/---5\---------
 |------2--5--4--------------2-2--1/--------2--5--
 |------0--3-------------0-3-----------------0--3--
        .  .             . . .               .  .

 -----------------------XXXXO---------XXXXO-----|
 -------------------(RIFF-A)--------------------|
 ----6-7\--------------------------------------|
 -6--4-5\--------------------------------------|
 -4--------------2--9---8-/-11----9---8-/-11----|
 ------------0-3----7---6-/--9----7---6-/--9----|
             . . .

again RIFF B1 = 1 time
again RIFF B2 = 1 time
again RIFF B3 = 2 times
again RIFF C  = 4 times
again RIFF D1 = 1 time
again RIFF E  = 4 times

both guitars first 3 times/5 & 7 time
RIFF F1
 |--------------------------------------|
 |--------------------------------------|
 |-7\------------6-7\------------------|
 |-5\---------6--4-5\----------4--3/---|
 |------2--5--4--------------2-2--1/---|
 |------0--3-------------0-3------------|
        .  .             . . .
both guitars 4 & 6 time
RIFF F2
 |--------------------------------------------|
 |--------------------------------------------|
 |-7\------------6-7\------------------------|
 |-5\---------6--4-5\----------------4--3/---|
 |------2--5--4--------------2----2--2--1/---|
 |------0--3-------------0-3---0-3------------|
        .  .             . . . . . .
both guitars last time (eight)
RIFF F3
 |-----------------------------------------|
 |-----------------------------------------|
 |-7\------------6-7\---------------------|
 |-5\---------6--4-5\---------------------|
 |------2--5--4--------------2----2-----2-|
 |------0--3-------------0-3---0-3---0-3---|
        .  .             . . . . . . . . .
both guitars 4 times
RIFF G1
|-------------------------------------------------------|
|-------------------------------------------------------|
|-------------------------------------------------------|
|-------2--2--------------11\---------------------------|
|-------2--2-6/7\6/7\6---------------------------------|
|-9\----0--0------------0--9\---5/6\5/6-4/5\4/5-3/4\3/4-|
        .  .            .
after fourth time...
|---------------------------------|
|---------------------------------|
|---------------------------------|
|---------------------------------|
|------5p4------------------------|
|-4p3-------4p3--3--6--7--6h7p6---|


SOLO I:
again RIFF G1 under solo 4 times

play this under SOLO II:
RIFF G2
|--------------------------------------------------------|
|--------------------------------------------------------|
|---------------------------9\---------------------------|
|--------2--2--------------------------------------------|
|--------2-2---------------7\---------------------------|
|-12\----0-0--8/9\8/9\8-0-------8/9\8/9-7/8\7/8-6/7\6/7-|
         .  .            .
after fourth time...
|---------------------------------|
|---------------------------------|
|---------------------------------|
|---------------------------------|
|------5p4------------------------|
|-4p3-------4p3--3--6--7--6h7p6---|

both guitars 1 time
RIFF H
|-O--X--O--X--O--X--O--X--O--X--O--X--O--X--O--X--
|-------------------------------------------------
|-------------------------------------------------
|-6\-5--------7\-6--------------------------------
|-4\-3-6\-5-5\-4--6\-5--5-----8-----9-----8-----
|-------4\-3--------4\-3--3-----6-----7-----6-----

 -O--X--O--X--O--X--O--X--O--X--O--X--O--X--O--X--
 -------------------------------------------------
 -------------------------------------------------
 -------------------------7\-6--------------------
 -11----9-----8-----6\-5-5\-4-6\-5--5-----8-----
 --9----7-----6-----4\-3--------4\-3--3-----6-----

 -O--X--O--X--O--X--O--X--O--X--O--X--O--X--O--X--
 -------------------------------------------------
 -------------------------------------------------
 -------------------------7\-6--------------------
 -9-----8-----11----6\-5--5\-4-6\-5--5-----8-----
 -7-----6------9----4\-3--------4\-3--3-----6-----
riff A
 -----XXXXO---------XXXXO-----|
 -----------------------------|
 -----------------------------|
 -----------------------------|
 -9---8-/-11----9---8-/-11----|
 -7---6-/--9----7---6-/--9----|

again RIFF B1 = 1 time
again RIFF B2 = 1 time
again RIFF B3 = 2 times
again RIFF C  = 4 times

both guitars 1 time
RIFF D2
 |-O------0-----0-------0-------0-------0----X--
 |----------------------------------------------
 |----------------------------------------------
 |----------------------------------------------
 |-6\5-5/8-3--4\3--3--4\3-3--4\3--3--4\3--3--
 |-4\3-3/6-1--2\1--1--2\1-1--2\1--1--2\1--1--
             .       .       .       .       .


  -------------------------------------------------
  -------------------------------------------------
  -------------------------------------------------
  -------------------------------------------------
  -4\3--3--4\3-3--4\3--3--4\3--3-4\3-3-4\3--3--
  -2\1--1--2\1-1--2\1--1--2\1--1-2\1-1-2\1--1--
        .       .       .       .       .       .
  ---------------------------------------------||
  ---------------------------------------------||
  ---------------------------------------------||
  ---------------------------------------------||
  -4\3--3--4\3-3--7\6--6--7\6--6-7\6-6-7\6-||
  -2\1--1--2\1-1--5\4--4--5\4--4-5\4-4-5\4-||
        .       .       .       .       .

THE END

  Visit MetalTabs.com for more metal tablature

bottom separator

Contact Us | Privacy Policy | Disclaimer
Copyright © 2001-2014 MetalTabs.com. All Rights Reserved.