top separator

Home

Forum

What's New

Submit a Tab

FAQ

Links

Contact Us

Link to Us

MetalTabs.com logo

Bands

0-9

A

B

C

D

E

F

G

H

I

J

K

L

M

N

O

P

Q

R

S

T

U

V

W

X

Y

Z

Search

What

Where
 

Darkthrone - "To Walk The Infernal Fields" Guitar Tab

Plain Text Version
More Darkthrone Tabs

Hits: 7015
Rated: 4.25 out of 5 (8 votes)
Updated: 2004-11-29 09:44:15

 

By:

Necro Daemon

sendpm.gif

email.gif

Important note
This tab is available online because we obtained explicit permission from Darkthrone or their label.


#----------------------------------PLEASE NOTE---------------------------------#
#This file is the author's own work and represents their interpretation of the #
#song. You may only use this file for private study, scholarship, or research. #
#Unless specified otherwise, this is NOT an official tab from the band members.#
#------------------------------------------------------------------------------#

  Visit MetalTabs.com for more metal tablature
  
Band: Dark Throne
Album: Under A Funeral Moon
Song: To Walk The Infernal Fields

Tabbed by Necro Daemon

Email: SHAWNMICHAELZ@hotmail.com


I tought that the 'To Walk The Infernal Fields tab'
did not sound like the song so i made my own!

Riff 1a(x2)
|-------------------------
|-------------------------
|-------------------------
|-777---------------------
|-555-888-7---555-777-8---
|-----666-5..-333-555-6..-

Riff 1b(x2)
|--------------------------------------
|--------------------------------------
|--------------------------------------
|-777-------7-----------------8--------
|-555-888-7----7-7--555-777-8----8-8---
|-----666-5--5--5-5-333-555-6--6--6-6--

Riff 2(101=2x10)(x8)
|--------------------------------------
|--------------------------------------
|--------------------------------------
|-777-101---7-----------888---8--------
|-555-888-7----7-7--555-666-8----8-8---
|---------5--5--5-5-333-----6--6--6-6--

Before Riff 3
|---------
|---------
|---------
|-777-101-
|-555-888-
|---------

Riff 3(10=1010)(x4)                             1,2,3.
|-----------------------------------------------|-------
|-----------------------------------------------|-------
|-----------------------------------------------|-------
|-------99---10---9-----------------------------|-------
|-7-777-7777-7777-7-7-6-5-3--333-2-222-4-444-3--|-3-5-6-
|-5-555-5555-5555-5-5-4-3-1..111-1-111-1-111-1..|-1-3-4-

Repeat Riff 2(x8)
Repeat Riff 3(x4)

Riff 4(x8)    1,3,5,7      2,6       4,8
|------------|------------|---------|---------
|------------|------------|---------|---------
|------------|------------|---------|---------
|----------3-|------------|---------|-------7-
|-2-55-3-2-1-|-2-55-3-2-3-|-2-3-2-3-|-2-3-2-5-
|-0-33-1-0---|-0-33-1-0-1-|-0-1-0-1-|-0-1-0---

Riff 5(x4)
|------------------------------
|------------------------------
|---------455-----------4-4333-
|---8-----233-----8-----2-2111-
|-2-6-2-2-------2-6-2-2--------
|-0---0-0-------0---0-0---------

Riff 6(x4)
|------------------------
|------------------------
|---------55-44-22-------
|---------33-22-00-3-333-
|-2---22-----------1-111-
|-0..-00..---------------

Repeat Riff 3(x4)
Repeat Riff 4(x8)
Repeat Riff 2(x....)

End...

  Visit MetalTabs.com for more metal tablature

bottom separator

Contact Us | Privacy Policy | Disclaimer | Legal Notice
Copyright © 2001-2014 MetalTabs.com. All Rights Reserved.