top separator

Home

Forum

What's New

Submit a Tab

FAQ

Links

Contact Us

Link to Us

MetalTabs.com logo

Bands

0-9

A

B

C

D

E

F

G

H

I

J

K

L

M

N

O

P

Q

R

S

T

U

V

W

X

Y

Z

Search

What

Where
 

Absorbed (NL) - "Maximum Deformity" Guitar Tab

Plain Text Version
More Absorbed (NL) Tabs

Hits: 1867
Rated: 3.00 out of 5 (2 votes)
Updated: 2004-11-29 09:43:32

 

By:

Zombie Clown

sendpm.gif

email.gif

Important note
This tab is available online because we obtained explicit permission from Absorbed (NL) or their label.


#----------------------------------PLEASE NOTE---------------------------------#
#This file is the author's own work and represents their interpretation of the #
#song. You may only use this file for private study, scholarship, or research. #
#Unless specified otherwise, this is NOT an official tab from the band members.#
#------------------------------------------------------------------------------#

  Visit MetalTabs.com for more metal tablature
  
Band:  Absorbed
Album: Sunset Bleeding
Song: Maximum Deformity

Copyright (c)  (Resurecte Records) (1999)
Version 1.0 - (2004)

Transcribed By: Zombie Clown
Email:          bobnoboborjimnobobgoat@yahoo.com


.  - palm mute           /  - slide up to
\  - slide down to       ~  - vibrato
h  - hammer on           b  - Bend
p  - pull off            Suffixes for bend
t  - tap                 f  - full bend    h - half bend
ph - pinched harmonic    q  - quarter bend t - tap bend
*  - see comment         ^  - Hold bend    r release bend
x  - Stuccatto           ~  - vibrato bend
,  - slight palm mute    () - ghost note, sustained note
"  - tremolo note        <> - Trill

Tunning E A D G B E

intro

guitar 1

|---------------------------------------------|
|---------------------------------------------|
|---------------------------------------------|
|---------------------------------------------|
|---------------------------------------------|
|-3-0-0-0-0-0-0-0-0-0-1-0-0-0-0-0-0-0-0-0-1h3-|
    . . . .   . . . .   . . . .   . . . .

|-------------------------------------------------|
|-------------------------------------------------|
|-------------------------------------------------|
|-------------------------------------------------|
|---------------------------------------------3ph-|
|-3-0-0-0-0-0-0-0-0-0-1-0-0-0-0-2-0-0-0-0-1h3-----|
    . . . .   . . . .   . . . .   . . . .


guitar 2

|-----|--------------------------------------------------|
|-----|--------------------------------------------------|
|-----|--------------------------------------------------|
|-----|--------------------------------------------------|
|-----|--------------------------------------------------|
|-----|---------------------------pick scrape-\----------|

guitar 1 and 2

|---------------------------------------------|
|---------------------------------------------|
|---------------------------------------------|
|---------------------------------------------|
|---------------------------------------------|
|-3-0-0-0-0-0-0-0-0-0-1-0-0-0-0-0-0-0-0-0-1h3-|
    . . . .   . . . .   . . . .   . . . .

|----------------------------------------|
|----------------------------------------|
|----------------------------------------|
|----------------------------------------|
|-------------------------------------3~-|
|-3-0-0-0-0-0-0-0-0-0-1-0-3-0-0-1-0-0----|
    . . . .   . . . .


repeat this until the vocals come in, the time just before the vocals is this:

guitar 1

|---------------------------------------------|
|---------------------------------------------|
|---------------------------------------------|
|---------------------------------------------|
|---------------------------------------------|
|-3-0-0-0-0-0-0-0-0-0-1-0-0-0-0-0-0-0-0-0-1h3-|
    . . . .   . . . .   . . . .   . . . .

|-----------------------------------------|
|-----------------------------------------|
|-----------------------------------------|
|-----------------------------------------|
|-------------------------------------3ph-|
|-3-0-0-0-0-0-0-0-0-0-1-0-3-0-0-1-0-0-----|
    . . . .   . . . .


guitar 2

|---------------------------------------------|
|---------------------------------------------|
|---------------------------------------------|
|---------------------------------------------|
|---------------------------------------------|
|-3-0-0-0-0-0-0-0-0-0-1-0-0-0-0-0-0-0-0-0-1h3-|
    . . . .   . . . .   . . . .   . . . .

|----------------------------------------|
|----------------------------------------|
|----------------------------------------|
|----------------------------------------|
|----------------------------------------|
|-3-0-0-0-0-0-0-0-0-0-1-0----------------|
    . . . .   . . . .


verse part 1

guitars 1 and 2

|-----------------------------|
|-----------------------------|
|-----------------------------|
|-----------------------------|
|-1-1--0-3-3--3-8-8--8-3-3--3-|
|-1-1--0-3-3--3-8-8--8-3-3--3-|

chorus part 1

guitar 1

|-------------------------------------------|
|-------------------------------------------|
|-------------------------------------------|
|-------------------------------------------|
|---------------------------------2-3-3-3-3-|
|-3-0-0-0-0-0-0-0-1-0-0-0-0-0-0-0-----------|
      . . . . . .     . . . . . .

|---------------------------------------------|
|---------------------------------------------|
|---------------------------------------------|
|---------------------------------------------|
|---------------------------------2-3-0-0-0-0-|
|-3-0-0-0-0-0-0-0-1-0-0-0-0-0-0-0-------------|
      . . . . . .     . . . . . .

|-------------------------------------------|
|-------------------------------------------|
|-------------------------------------------|
|-------------------------------------------|
|---------------------------------2-3-3-3-3-|
|-3-0-0-0-0-0-0-0-1-0-0-0-0-0-0-0-----------|
      . . . . . .     . . . . . .

|---------------------------------------------|
|---------------------------------------------|
|---------------------------------------------|
|---------------------------------------------|
|---------------------------------2-3-0-0-0-0-|
|-3-0-0-0-0-0-0-0-1-0-0-0-0-0-0-0-------------|
      . . . . . .   . . . . . . .

guitar 2

|-----------------------------------------|
|-----------------------------------------|
|-----------------------------------------|
|-----------------------------------------|
|---------------------------------2-3-3-3-|
|-3-0-0-0-0-0-0-0-1-0-0-0-0-0-0-0---------|
      . . . . . .     . . . . . .

|-------------------------------------------|
|-------------------------------------------|
|-------------------------------------------|
|-------------------------------------------|
|---------------------------------2-3-0-0-0-|
|-3-0-0-0-0-0-0-0-1-0-0-0-0-0-0-0-----------|
      . . . . . .     . . . . . .


|-----------------------------------------|
|-----------------------------------------|
|-----------------------------------------|
|---------------------------------2-3-3-3-|
|-----------------------------------------|
|-3-0-0-0-0-0-0-0-1-0-0-0-0-0-0-0---------|
      . . . . . .     . . . . . .

|-------------------------------------------|
|-------------------------------------------|
|-------------------------------------------|
|-------------------------------------------|
|---------------------------------2-3-0-0-0-|
|-3-0-0-0-0-0-0-0-1-0-0-0-0-0-0-0-----------|
      . . . . . .   . . . . . . .

verse part 2

guitars 1 and 2

|-----------------------------|--------------------------------------|
|-----------------------------|--------------------------------------|
|-----------------------------|--------------------------------------|
|-----------------------------|--------------------------------------|
|-1-1--0-3-3--3-8-8--8-3-3--3-|-1-1--0-3-3--3-8-8--8-----------------|
|-1-1--0-3-3--3-8-8--8-3-3--3-|-1-1--0-3-3--3-8-8--8-0-0-0-0-0-0-0-0-|
                                                     . . . . . . . .

chorus part 2

|-----------------------------------------------|
|-----------------------------------------------|
|-----------------------------------------------|
|-----------------------------------------------|
|---------------------------------2-3-3-3-3-3-3-|
|-3-0-0-0-0-0-0-0-1-0-0-0-0-0-0-0---------------|
      . . . . . .     . . . . . .

|-------------------------------------------------|
|-------------------------------------------------|
|-------------------------------------------------|
|-------------------------------------------------|
|---------------------------------------------3-0-|
|-3-0-0-0-0-0-0-0-1-0-0-0-0-0-0-0--3-0-0-1-0------|
      . . . . . .   . . . . . . .

bridge

guitar 1

|------------------|-------------|-----------------|---------------:||------|
|------------------|-------------|-----------------|---------------:||------|
|-3-2-0-3-5-5-5-5--|-------------|-----------------|---------------:||------|
|------------------|-3-3-3-3-3-3-|-3-2-0-3-5-5-5-5-|---------------:||------|
|------------------|-------------|-----------------|-3-3-3-3-3-3-3-:||------|
|------------------|-------------|-----------------|---------------:||------|

guitar 2

|------------------|-------------|-----------------|---------------:||------|
|------------------|-------------|-----------------|---------------:||------|
|------------------|-------------|-----------------|---------------:||------|
|-5----------------|-3-----------|-----------------|---------------:||------|
|-3----------------|-1-----------|-5---------------|-3-------------:||-5\---|
|------------------|-------------|-3---------------|-1-------------:||-3\---|
                                                                       '
guitar 1

|-----------------------------------------------------|
|-----------------------------------------------------|
|-----------------------------------------------------|
|-----------------------------------------------------|
|-3-3-3-3-3--1-1-1-1-1-1--3-3-3-3-3-3-3---5-5-5-5-5-5-|
|-----------------------------------------------------|

|-----------------------------------------------------|
|-----------------------------------------------------|
|-----------------------------------------------------|
|-3-3-3-3-3--1-1-1-1-1-1--3-3-3-3-3-3-3---5-5-5-5-5-5-|
|-----------------------------------------------------|
|-----------------------------------------------------|

|-----------------------------------------------------|
|-----------------------------------------------------|
|-3-3-3-3-3--1-1-1-1-1-1--3-3-3-3-3-3-3---5-5-5-5-5-5-|
|-----------------------------------------------------|
|-----------------------------------------------------|
|-----------------------------------------------------|

|-----------------------------------------------------|
|-----------------------------------------------------|
|-----------------------------------------------------|
|-----------------------------------------------------|
|-3-3-3-3-3--1-1-1-1-1-1--3-3-3-3-3-3-3---1-1-1-1-1-1-|
|-----------------------------------------------------|

guitar 2


|-----------------------------------------------------|
|-----------------------------------------------------| play three times
|-----------------------------------------------------|
|-----------------------------------------------------|
|-3-3-3-3-3--1-1-1-1-1-1--3-3-3-3-3-3-3---5-5-5-5-5-5-|
|-----------------------------------------------------|

|-----------------------------------------------------|
|-----------------------------------------------------|
|-----------------------------------------------------|
|-----------------------------------------------------|
|-3-3-3-3-3--1-1-1-1-1-1--3-3-3-3-3-3-3---1-1-1-1-1-1-|
|-----------------------------------------------------|

verse part 3

guitar 1

|-----------------------|------------------------|-----------------------|
|-----------------------|------------------------|-----------------------|
|-----------------------|------------------------|-----------------------|
|-----------------------|------------------------|-----------------------|
|-0-------------1h3-----|-0-------------1h3-1-3--|-0-------------1h3-----|
|-0-0-0-1h3-0-0-----1h3-|-0-0-0-1h3-0-0-----1-3--|-0-0-0-1h3-0-0-----1h3-|
    . .     . .             . .     . .              . .     . .

|------------------------|
|------------------------|
|------------------------|
|------------------------|
|-0-------------1h3-1-3--|
|-0-0-0-1h3-0-0-----1-3--|
    . .     . .



guitar 2

rest one measure then
|----------------------|-------------------------|------------------------|
|----------------------|-------------------------|------------------------|
|----------------------|-------------------------|------------------------|
|----------------------|-------------------------|------------------------|
|------------------1-3-|-0----------------1--1---|-0-----------------1-3--|
|------------------1-3-|-0----------------1--1---|-0-----------------1-3--|

verse part 4

guitar 1
                                                     first        second
|------------------------------------------------:||------------|-------------|
|------------------------------------------------:||------------|-------------|
|-10--10-10-10-9--9-9-9-7--7-7-7--9-10--10-10-10-:||-12-11-10-9-|-12-11-12-13-|
|------------------------------------------------:||------------|-------------|
|------------------------------------------------:||------------|-------------|
|------------------------------------------------:||------------|-------------|

guitar 2
                                                     first        second
|------------------------------------------------:||------------|-------------|
|------------------------------------------------:||------------|-------------|
|------------------------------------------------:||------------|-------------|
|------------------------------------------------:||------------|-------------|
|-3---3--3--3--2--2-2-2-0--0-0-0--2-3---3--3--3--:||-5--4--3--2-|-5--4--3--0--|
|------------------------------------------------:||------------|-------------|

fill 2

guitars 1 and 2

|-----------------|
|-----------------|
|-----------------|
|-5---4---4---5---|
|-3---2---2---3---|
|-----------------|

chorus part 3

guitar 1

|-----------------------------|-----------------------------|
|-----------------------------|-----------------------------|
|-----------------------------|-----------------------------|
|-----------------------------|-----------------------------|
|-1-1--0-3-3--3-8-8--8-3-3--3-|-----------------------------|
|-1-1--0-3-3--3-8-8--8-3-3--3-|--------------pick scrape-\--|

guitar 2

|-----------------------------|-----------------------------|
|-----------------------------|-----------------------------|
|-----------------------------|-----------------------------|
|-----------------------------|-----------------------------|
|-----------------------------|-1-1--0-3-3--3-8-8--8-3-3--3-|
|-----------------------------|-1-1--0-3-3--3-8-8--8-3-3--3-|

then play verse part 2

ending

guitars 1 and 2

|------------------------------|
|------------------------------|
|------------------------------|
|------------------------------|
|-3-----3-----3-----3-----0----|
|-3-0-0-3-0-0-3-0-0-3-0-0-0----|
    . .   . .   . .   . . x

  Visit MetalTabs.com for more metal tablature

bottom separator

Contact Us | Privacy Policy | Disclaimer | Legal Notice
Copyright © 2001-2014 MetalTabs.com. All Rights Reserved.