top separator

Home

Forum

What's New

Submit a Tab

FAQ

Links

Contact Us

Link to Us

MuSpy.com

MetalTabs.com logo

Bands

0-9

A

B

C

D

E

F

G

H

I

J

K

L

M

N

O

P

Q

R

S

T

U

V

W

X

Y

Z

Search

What

Where
 

My Dying Bride - "Edenbeast" Guitar Tab

Plain Text Version
More My Dying Bride Tabs

Hits: 3792
Rated: 4.71 out of 5 (21 votes)
Updated: 2004-11-29 09:40:44

 

By:

sendpm.gif

email.gif

Important note
This tab is available online because we obtained explicit permission from My Dying Bride or their label.


#----------------------------------PLEASE NOTE---------------------------------#
#This file is the author's own work and represents their interpretation of the #
#song. You may only use this file for private study, scholarship, or research. #
#Unless specified otherwise, this is NOT an official tab from the band members.#
#------------------------------------------------------------------------------#

  Visit MetalTabs.com for more metal tablature
  
Band:  (My Dying Bride)
Album: (The Light At The End Of The World)
Song:  (Edenbeast)

Copyright (c)  (Peaceville) (1999)
Version 1.0 - (11/23/04)

Transcribed By: (volosnankovy zuzik)
Email:          (glebvic@yahoo.com)


.  - palm mute           /  - slide up to
\  - slide down to       ~  - vibrato
h  - hammer on           b  - Bend
p  - pull off            Suffixes for bend
t  - tap                 f  - full bend    h - half bend
ph - pinched harmonic    q  - quarter bend t - tap bend
*  - see comment         ^  - Hold bend    r release bend
x  - Stuccatto           ~  - vibrato bend
,  - slight palm mute    () - ghost note, sustained note
"  - tremolo note        <> - Trill

Tunning Db Gb B E G Db

riff 1 (the first riff is just quite a bit different in counting than
the rest of the following with the same melody)
Slow
|--------------------------------------------------------------------|
|----------------------------------------------------0-----0331100---|
|------------121-2-----------1212421---------12124212----------------|
|2---------23--------------23-------20-----23------------------------|
|--------------------------------------------------------------------|
|--------------------------------------------------------------------| x1

|----------------------------------------------------------------|
|------------------------------------------------0-----0331100---|
|--------121-2-----------1212421---------12124212----------------|
|2-----23--------------23-------20-----23------------------------|
|----------------------------------------------------------------|
|----------------------------------------------------------------| x3

Gtr 2
(first time of the riff 1)
|-------------------------------------------------------------------|
|-------------------------------------------------------------------|
|--------------------------------7----------------------------------|
|2-------------------------------7---------------9------------------|
|2-------------------------------5---------------9------------------|
|0-----------------------------------------------7------------------| x1

(starting second time of riff 1)
|-------------------------------------------------------------------|
|-------------------------------------------------------------------|
|-------------------------------------------------------------------|
|------------------------------------------------9------------------|
|------23232-3---------2323235-------------------9------------------|
|0-----------------------------------------------7------------------| x2

Riff 2
Gtr 1
|-----------------------------------|
|-----------------------------------|
|-------------------21-------2-1----|
|--2023-3-2302--------3202-3-----32-|
|-----------------------------------|
|0-----0-------0--------------------| x4

Gtr 2
|-----------------------------------|
|-----------------------------------|
|-----------------------------------|
|--2023-0-2302-2-------------0-2----|
|--------------2-----------3-----32-|
|0-----0-------0--------------------| x4

Riff 3
both guitars
|-------------------------------------|
|-------------------------------------|
|9-9----52-2---754-4------------------|
|9-9---252-2---754-4-------54-4-------|
|7-7---230-0---532-2-----3254-4-----23|
|------0-------532-2---23--32-2---23--| x4

Riff 1 x3

Riff 4
Gtr 1
|------------------|
|------------------|
|------------------|
|2---023-0---032532|
|------------------|
|------------------| x4

Gtr 2
|------------------|
|------------------|
|------------------|
|------------------|
|3---134-1---143643|
|------------------| x4

Riff 5
Fast
both Guitars
|------------------------------------------------|
|------------------------------------------------|
|------------------------------------------------|
|------------------------------------------------|
|333333333333111333444444111111111111111444333643|
|------------------------------------------------| x8

ending on the 8th time
|------------|
|------------|
|------------|
|3--6--5-----|
|1--4--3--643|
|1--4--3-----|

Riff 6
Slow
Both Guitars
|------------------|
|------------------|
|------------------|
|5---356-3---365---|
|3---134-1---143643|
|3---134-1---143---| x4

Riff 2 x4

Riff 7
Guitar 1 only
|--------------------------------|
|--------------------------------|
|--424----0----------------------|
|-2------2---04---2--------------|
|----------------3-------03----2-|
|0---------------------------3---| x8

Guitar 2 (start on the 3rd time of the riff)
|--------------------------------|
|------------0133----------------|
|--424---5-42------00-----0245-4-|
|-2------------------------------|
|--------------------------------|
|0-------------------------------| x6

Riff 4 x4

Riff 5 x8

Riff 6 x4

Riff 2 x4

END

  Visit MetalTabs.com for more metal tablature

bottom separator

Contact Us | Privacy Policy | Disclaimer | Legal Notice
Copyright © 2001-2014 MetalTabs.com. All Rights Reserved.