top separator

Home

Forum

What's New

Submit a Tab

FAQ

Links

Contact Us

Link to Us

MuSpy.com

MetalTabs.com logo

Bands

0-9

A

B

C

D

E

F

G

H

I

J

K

L

M

N

O

P

Q

R

S

T

U

V

W

X

Y

Z

Search

What

Where
 

Darkthrone - "Summer Of The Diabolical Holocaust" Guitar Tab

Plain Text Version
More Darkthrone Tabs

Hits: 6031
Rated: 3.60 out of 5 (5 votes)
Updated: 2004-11-29 09:40:05

 

By:

Necro Daemon

sendpm.gif

email.gif

Important note
This tab is available online because we obtained explicit permission from Darkthrone or their label.


#----------------------------------PLEASE NOTE---------------------------------#
#This file is the author's own work and represents their interpretation of the #
#song. You may only use this file for private study, scholarship, or research. #
#Unless specified otherwise, this is NOT an official tab from the band members.#
#------------------------------------------------------------------------------#

  Visit MetalTabs.com for more metal tablature
  
Band: Dark Throne
Album: Under A Funeral Moon
Song: Summer Of The Diabolical Holocaust

Tabbed by: Necro Daemon

Email: SHAWNMICHAELZ@hotmail.com

Another Great Song that had never been tabbed before!!!

Intro(x8) Shit i'm not sure its good..
(Different Slide Each Time)
|--------------------------
|--------------------------
|--------------------------
|--------------------------
|--------------------------
|-8-0000000-8-000-Slide...-

Riff 1(x2)
|---------------------
|---------------------
|---------------------
|------66--------66---
|-00-44--44-00-44--44-
|---------------------

|-------------------
|-------------------
|-------------------
|-----33-------33---
|---00--00---00--00-
|-22-------22-------

Riff 2(x4)
|-------------------------------
|-------------------------------
|-------44----------------------
|----55----55----55-4^5^4-3^4^3-
|-------------66----------------
|-00----------------------------

Repeat Intro(x8)

Repeat Riff 1(x2)
Repeat Riff 2(x4)

Riff 4(x1 Only Bass)(x15 with Guitar)
|---------------------------
|---------------------------
|---------------------------
|---------------------------
|-2-3-2-3-2---2-3-4---4-4-3-
|-0-1-0-1-0..-0-1-2..-2-2-1-

Riff 5(x8)With Little Backing Guitar Effects..
|----------------------
|----------------------
|----------------------
|----------------------
|---771010-------------
|-00--------0000000000-

Repeat Riff 1(x4)

Riff 6(x4)
|-------------------------
|-------------------------
|-------44-------44-33-44-
|----55----55-66----------
|-------------------------
|-00----------------------

Repeat Intro(x4)

|---
|---
|---
|-2-
|-2-
|-0-

The End!!!

  Visit MetalTabs.com for more metal tablature

bottom separator

Contact Us | Privacy Policy | Disclaimer | Legal Notice
Copyright © 2001-2014 MetalTabs.com. All Rights Reserved.