top separator

Home

Forum

What's New

Submit a Tab

FAQ

Links

Contact Us

Link to Us

MetalTabs.com logo

Bands

0-9

A

B

C

D

E

F

G

H

I

J

K

L

M

N

O

P

Q

R

S

T

U

V

W

X

Y

Z

Search

What

Where
 

Probot - "Shake Your Blood" Guitar Tab

Plain Text Version
More Probot Tabs

Hits: 7933
Rated: 2.60 out of 5 (5 votes)
Updated: 2004-11-29 09:39:24

 

By:

Zombie Clown

sendpm.gif

email.gif

Important note
We did our best to reach Probot and ask for their permission to publish this tab. Unfortunately they did not respond to our requests or we could not find a way to contact them. This tab is available online until Probot tells us to take it down.


#----------------------------------PLEASE NOTE---------------------------------#
#This file is the author's own work and represents their interpretation of the #
#song. You may only use this file for private study, scholarship, or research. #
#Unless specified otherwise, this is NOT an official tab from the band members.#
#------------------------------------------------------------------------------#

  Visit MetalTabs.com for more metal tablature
  
Band:  Probot
Album: S/T
Song:  Shake Your Blood

Copyright (c)  Southern Lord  2004
Version 1.0 - 11/21/04

Transcribed By: Zombie Clown
Email:          bobnoboborjimnobobgoat@yahoo.com


.  - palm mute           /  - slide up to
\  - slide down to       ~  - vibrato
h  - hammer on           b  - Bend
p  - pull off            Suffixes for bend
t  - tap                 f  - full bend    h - half bend
ph - pinched harmonic    q  - quarter bend t - tap bend
*  - see comment         ^  - Hold bend    r release bend
x  - Stuccatto           ~  - vibrato bend
,  - slight palm mute    () - ghost note, sustained note
"  - tremolo note        <> - Trill

Tunning E A D G B E

intro
  A                 B                        C
|--------------:||:---------------------:||----------------------|
|--------------:||:---------------------:||----------------------|
|--------------:||:---------------------:||----------------------|
|-9---9--------:||:---------------------:||----------------------|
|-7-9-7-----9--:||:-9-9-9-9-9---------7-:||-9-9-9-9-9------------|
|---7-------7--:||:-7-7-7-7-7-0-7h8h9---:||-7-7-7-7-7-0-7h9p8--0-|

verse
just keep playing intro parts B and C only palmuted

fill 1
played every often (he mixes it in with parts b and c)

|-------------|
|-------------|
|-------------|
|-------------|
|-------------|
|-0-9-0-8-0-7-|
  . . . . . .
chorus

|---------------------|
|---------------------|
|---------------------|
|---------------------| then play intro parts
|-10-10-9----12-12-12-| B and C
|-7--7--7----9--9--9--|

play intro part A before going into verse 2

bridge

|--------------|---------------:||--------------------| bass |---------------|
|--------------|---------------:||--------------------| solo |---------------|
|--------------|---------------:||--------------------|      |---------------|
|--------9-9-9-|--9---9--------:||--------------------|      |---------------|
|-9-9-9--7-7-7-|--7-9-7-----9--:||-9------------------|      |-7-7-7---9-9-9-|
|-7-7-7--------|----7-------7--:||-7------------------|      |-5-5-5---7-7-7-|

ending

|------------|
|------------|
|------------|
|------------|
|-9-------\--|
|-7-------\--|

  Visit MetalTabs.com for more metal tablature

bottom separator

Contact Us | Privacy Policy | Disclaimer | Legal Notice
Copyright © 2001-2014 MetalTabs.com. All Rights Reserved.