top separator

Home

Forum

What's New

Submit a Tab

FAQ

Links

Contact Us

Link to Us

MetalTabs.com logo

Bands

0-9

A

B

C

D

E

F

G

H

I

J

K

L

M

N

O

P

Q

R

S

T

U

V

W

X

Y

Z

Search

What

Where
 

Sodom - "Electrocution" Guitar Tab

Plain Text Version
More Sodom Tabs

Hits: 4858
Rated: 3.80 out of 5 (5 votes)
Updated: 2005-05-07 09:17:45

 

By:

MetalThrashingMad

sendpm.gif

email.gif

Important note
This tab is available online because we obtained explicit permission from Sodom or their label.


#----------------------------------PLEASE NOTE---------------------------------#
#This file is the author's own work and represents their interpretation of the #
#song. You may only use this file for private study, scholarship, or research. #
#Unless specified otherwise, this is NOT an official tab from the band members.#
#------------------------------------------------------------------------------#

  Visit MetalTabs.com for more metal tablature
  
Band: Sodom
Album: Persecution Mania
Song: Electrocution
Copyright (c) Steamhammer 1987
Version FINAL - 04-20-2005
Transcribed By: Steve - MetalThrashingMad
Email: Thrasher502@hotmail.com


Gtr I (E A D G B E) - 'Guitar 1'
Gtr II (E A D G B E) - 'Guitar 2'
Gtr III (E A D G B E) - 'Both Guitars'

  Q=220
 4/4
  Gtr I
  PM  PM----------------------|      PM--------------------|
  E S S S S S S S S S S S S S S   Q  S S S S S S S S S S S S
|-------------------------------|-----------------------------|
|-------------------------------|-----------------------------|
|-------------------------------|-----------------------------|
|-------------------------------|-----------------------------|
|-2-----------------------------|-4---------------------------|
|-0-0-0-0-0-0-0-0-0-0-0-0-0-0-0-|-5--0-0-0-0-0-0-0-0-0-0-0-0--|
|
| Gtr II
| W                               W
|-------------------------------|-----------------------------|
|-------------------------------|-----------------------------|
|-------------------------------|-----------------------------|
|-------------------------------|-----------------------------|
|-2-----------------------------|-----------------------------|
|-0-----------------------------|-----------------------------|


     PM--------------------|
  Q  S S S S S S S S S S S S   E E E Q.   Q
|----------------------------|---------------|
|----------------------------|---------------|
|----------------------------|---------------|
|----------------------------|---------------|
|-2--------------------------|------------3--|
|-3--0-0-0-0-0-0-0-0-0-0-0-0-|-1h2p1-3/---1--|
|
| W                            W
|----------------------------|---------------|
|----------------------------|---------------|
|----------------------------|---------------|
|----------------------------|---------------|
|----------------------------|---------------|
|----------------------------|---------------|


  Gtr III
  PM----------------------------|      PM--------------------|
  S S S S S S S S S S S S S S S S   Q  S S S S S S S S S S S S
|---------------------------------|-----------------------------|
|---------------------------------|-----------------------------|
|---------------------------------|-----------------------------|
|---------------------------------|-----------------------------|
|---------------------------------|-4---------------------------|
|-0-0-0-0-0-0-0-0-0-0-0-0-0-0-0-0-|-5--0-0-0-0-0-0-0-0-0-0-0-0--|

     PM--------------------|
                                     |-3-| |-3-|
  Q  S S S S S S S S S S S S   Q  Q  S S S S S S
|----------------------------|-------------------|
|----------------------------|-------------------|
|----------------------------|-------------------|
|----------------------------|-------------------|
|-2--------------------------|-5--3--------------|
|-3--0-0-0-0-0-0-0-0-0-0-0-0-|-3--1--3h5p3-1h3p1-|


     \2
  Q  H.        +W
|------------|--------|
|------------|--------|
|------------|--------|
|----0-------|-(0)----|
|------------|--------|
|-0----------|--------|


    Gtr I
    PM----------------------------|      PM--------------------|
    S S S S S S S S S S S S S S S S   Q  S S S S S S S S S S S S
||----------------------------------|----------------------------|
||o---------------------------------|----------------------------|
||----------------------------------|----------------------------|
||----------------------------------|----------------------------|
||o---------------------------------|-4--------------------------|
||--0-0-0-0-0-0-0-0-0-0-0-0-0-0-0-0-|-5--0-0-0-0-0-0-0-0-0-0-0-0-|


     PM--------------------|
                                     |-3-| |-3-|
  Q  S S S S S S S S S S S S   Q  Q  S S S S S S  4x
|----------------------------|--------------------||
|----------------------------|-------------------o||
|----------------------------|--------------------||
|----------------------------|--------------------||
|-2--------------------------|-5--3--------------o||
|-3--0-0-0-0-0-0-0-0-0-0-0-0-|-3--1--3h5p3-1h3p1--||


    PM--------------------------------------------------------------|
    S S S S S S S S S S S S S S S S   S S S S S S S S S S S S S S S S
||----------------------------------|----------------------------------|
||o---------------------------------|----------------------------------|
||----------------------------------|----------------------------------|
||----------------------------------|----------------------------------|
||o---------------------------------|----------------------------------|
||--3-3-3-3-3-3-3-3-3-3-3-3-3-3-3-3-|-5-5-5-5-5-5-5-5-5-5-5-5-5-5-5-5--|


  PM--------------------------------------------------------------|
  S S S S S S S S S S S S S S S S   S S S S S S S S S S S S S S S S
|---------------------------------|----------------------------------||
|---------------------------------|---------------------------------o||
|---------------------------------|----------------------------------||
|---------------------------------|----------------------------------||
|---------------------------------|-5-5-5-5-5-5-5-5-5-5-5-5-5-5-5-5-o||
|-4-4-4-4-4-4-4-4-4-4-4-4-4-4-4-4-|----------------------------------||


    Gtr I
    PM----------------------------|      PM--------------------|
    S S S S S S S S S S S S S S S S   Q  S S S S S S S S S S S S
||----------------------------------|----------------------------|
||o---------------------------------|----------------------------|
||----------------------------------|----------------------------|
||----------------------------------|----------------------------|
||o---------------------------------|-4--------------------------|
||--0-0-0-0-0-0-0-0-0-0-0-0-0-0-0-0-|-5--0-0-0-0-0-0-0-0-0-0-0-0-|


     PM--------------------|
                                     |-3-| |-3-|
  Q  S S S S S S S S S S S S   Q  Q  S S S S S S  4x
|----------------------------|--------------------||
|----------------------------|-------------------o||
|----------------------------|--------------------||
|----------------------------|--------------------||
|-2--------------------------|-5--3--------------o||
|-3--0-0-0-0-0-0-0-0-0-0-0-0-|-3--1--3h5p3-1h3p1--||


    PM--------------------------------------------------------------|
    S S S S S S S S S S S S S S S S   S S S S S S S S S S S S S S S S
||----------------------------------|----------------------------------|
||o---------------------------------|----------------------------------|
||----------------------------------|----------------------------------|
||----------------------------------|----------------------------------|
||o---------------------------------|----------------------------------|
||--3-3-3-3-3-3-3-3-3-3-3-3-3-3-3-3-|-5-5-5-5-5-5-5-5-5-5-5-5-5-5-5-5--|


  PM--------------------------------------------------------------|
  S S S S S S S S S S S S S S S S   S S S S S S S S S S S S S S S S
|---------------------------------|----------------------------------||
|---------------------------------|---------------------------------o||
|---------------------------------|----------------------------------||
|---------------------------------|----------------------------------||
|---------------------------------|-5-5-5-5-5-5-5-5-5-5-5-5-5-5-5-5-o||
|-4-4-4-4-4-4-4-4-4-4-4-4-4-4-4-4-|----------------------------------||


    Gtr I
    PM----------------------------|      PM--------------------|
    S S S S S S S S S S S S S S S S   Q  S S S S S S S S S S S S
||----------------------------------|----------------------------|
||o---------------------------------|----------------------------|
||----------------------------------|----------------------------|
||----------------------------------|----------------------------|
||o---------------------------------|-4--------------------------|
||--0-0-0-0-0-0-0-0-0-0-0-0-0-0-0-0-|-5--0-0-0-0-0-0-0-0-0-0-0-0-|


     PM--------------------|
                                     |-3-| |-3-|
  Q  S S S S S S S S S S S S   Q  Q  S S S S S S  4x
|----------------------------|--------------------||
|----------------------------|-------------------o||
|----------------------------|--------------------||
|----------------------------|--------------------||
|-2--------------------------|-5--3--------------o||
|-3--0-0-0-0-0-0-0-0-0-0-0-0-|-3--1--3h5p3-1h3p1--||


  W          +W
|----------|--------|
|----------|--------|
|----------|--------|
|----------|--------|
|-2--------|-(2)----|
|-0--------|-(0)----|


    Q=150
    PM|   PM|   PM|     PM|   PM|       PM|   PM|   PM|     PM|   PM|
    E E E E E E E E   E E E E E E E E   E E E E E E E E   E E E E E E E E
||------------------|-----------------|-----------------|-----------------||
||o-----------------|-----------------|-----------------|----------------o||
||------------------|-----------------|-----------------|-----------------||
||------9-----7-----|-9-----7-----5S7-|-----9-----7-----|-9-----7---------||
||o-----7-----5-----|-7-----5-----3S5-|-----7-----5-----|-7-----5-----6S5o||
||--0-0---0-0---0-0-|---0-0---0-0-----|-0-0---0-0---0-0-|---0-0---0-0-4S3-||


  PM------------|       PM   PM     PM------------|       PM   PM
  E E E E E E E E   E E E Q  E Q    E E E E E E E E   E E E Q  E Q
|-----------------|---------------|-----------------|---------------|
|-----------------|---------------|-----------------|---------------|
|-----------------|---------------|-----------------|---------------|
|-----------------|---------------|-----------------|-5S4-----------|
|-2---------------|-5S6---7----5--|-2---------------|-3S2---5----7--|
|-0-0-0-0-0-0-0-0-|-3S4-0-5--0-3--|-0-0-0-0-0-0-0-0-|-----0-3--0-5--|


  PM------------|       PM   PM     PM------------|       PM   PM
  E E E E E E E E   E E E Q  E Q    E E E E E E E E   E E E Q  E Q
|-----------------|---------------|-----------------|---------------|
|-----------------|---------------|-----------------|---------------|
|-----------------|---------------|-----------------|---------------|
|-----------------|---------------|-----------------|-5S4--------5--|
|-2---------------|-5S6---7----5--|-2---------------|-3S2---5----3--|
|-0-0-0-0-0-0-0-0-|-3S4-0-5--0-3--|-0-0-0-0-0-0-0-0-|-----0-3--0----|


     PM--------|        PM   PM        PM--------|        PM   PM
  Q  E E E E E E    E E E Q  E Q    Q  E E E E E E    E E E Q  E Q
|-----------------|---------------|----------------|----------------|
|-----------------|---------------|----------------|----------------|
|-----------------|---------------|----------------|----------------|
|-4---------------|-5S4--------5--|-4--------------|--5S4--------5--|
|-2--2-2-2-2-2-2--|-3S2---5----3--|-2--2-2-2-2-2-2-|--3S2---5----3--|
|-----------------|-----0-3--0----|----------------|------0-3--0----|


  PM------------|       PM   PM     PM------------|       PM   PM
  E E E E E E E E   E E E Q  E Q    E E E E E E E E   E E E Q  E Q
|-----------------|---------------|-----------------|---------------|
|-----------------|---------------|-----------------|---------------|
|-----------------|---------------|-----------------|---------------|
|-----------------|---------------|-----------------|-5S4-----------|
|-2---------------|-5S6---7----5--|-2---------------|-3S2---5----7--|
|-0-0-0-0-0-0-0-0-|-3S4-0-5--0-3--|-0-0-0-0-0-0-0-0-|-----0-3--0-5--|


  PM------------|       PM   PM     PM------------|       PM   PM
  E E E E E E E E   E E E Q  E Q    E E E E E E E E   E E E Q  E Q
|-----------------|---------------|-----------------|---------------|
|-----------------|---------------|-----------------|---------------|
|-----------------|---------------|-----------------|---------------|
|-----------------|---------------|-----------------|-5S4--------5--|
|-2---------------|-5S6---7----5--|-2---------------|-3S2---5----3--|
|-0-0-0-0-0-0-0-0-|-3S4-0-5--0-3--|-0-0-0-0-0-0-0-0-|-----0-3--0----|


      PM--------|       PM   PM        PM--------|        PM   PM
  Q   E E E E E E   E E E Q  E Q    Q  E E E E E E    E E E Q  E Q
|-----------------|---------------|----------------|----------------|
|-----------------|---------------|----------------|----------------|
|-----------------|---------------|----------------|----------------|
|-4---------------|-5S4--------5--|-4--------------|--5S4--------5--|
|-2---2-2-2-2-2-2-|-3S2---5----3--|-2--2-2-2-2-2-2-|--3S2---5----3--|
|-----------------|-----0-3--0----|----------------|------0-3--0----|


  q  Q  q  Q    q  Q  q  Q    W
|-------------|-------------|------|
|-------------|-------------|------|
|-------------|-------------|------|
|-------------|-------------|------|
|-2-----2-----|-2-----2-----|-2----|
|-0-----0-----|-0-----0-----|-0----|


    Q=220
    Gtr I
    PM----------------------------|      PM--------------------|
    S S S S S S S S S S S S S S S S   Q  S S S S S S S S S S S S
||----------------------------------|----------------------------|
||o---------------------------------|----------------------------|
||----------------------------------|----------------------------|
||----------------------------------|----------------------------|
||o---------------------------------|-4--------------------------|
||--0-0-0-0-0-0-0-0-0-0-0-0-0-0-0-0-|-5--0-0-0-0-0-0-0-0-0-0-0-0-|


     PM--------------------|
                                     |-3-| |-3-|
  Q  S S S S S S S S S S S S   Q  Q  S S S S S S  4x
|----------------------------|--------------------||
|----------------------------|-------------------o||
|----------------------------|--------------------||
|----------------------------|--------------------||
|-2--------------------------|-5--3--------------o||
|-3--0-0-0-0-0-0-0-0-0-0-0-0-|-3--1--3h5p3-1h3p1--||


    PM--------------------------------------------------------------|
    S S S S S S S S S S S S S S S S   S S S S S S S S S S S S S S S S
||----------------------------------|----------------------------------|
||o---------------------------------|----------------------------------|
||----------------------------------|----------------------------------|
||----------------------------------|----------------------------------|
||o---------------------------------|----------------------------------|
||--3-3-3-3-3-3-3-3-3-3-3-3-3-3-3-3-|-5-5-5-5-5-5-5-5-5-5-5-5-5-5-5-5--|


  PM--------------------------------------------------------------|
  S S S S S S S S S S S S S S S S   S S S S S S S S S S S S S S S S
|---------------------------------|----------------------------------||
|---------------------------------|---------------------------------o||
|---------------------------------|----------------------------------||
|---------------------------------|----------------------------------||
|---------------------------------|-5-5-5-5-5-5-5-5-5-5-5-5-5-5-5-5-o||
|-4-4-4-4-4-4-4-4-4-4-4-4-4-4-4-4-|----------------------------------||


    Gtr I
    PM----------------------------|      PM--------------------|
    S S S S S S S S S S S S S S S S   Q  S S S S S S S S S S S S
||----------------------------------|----------------------------|
||o---------------------------------|----------------------------|
||----------------------------------|----------------------------|
||----------------------------------|----------------------------|
||o---------------------------------|-4--------------------------|
||--0-0-0-0-0-0-0-0-0-0-0-0-0-0-0-0-|-5--0-0-0-0-0-0-0-0-0-0-0-0-|


     PM--------------------|
                                     |-3-| |-3-|
  Q  S S S S S S S S S S S S   Q  Q  S S S S S S  4x
|----------------------------|--------------------||
|----------------------------|-------------------o||
|----------------------------|--------------------||
|----------------------------|--------------------||
|-2--------------------------|-5--3--------------o||
|-3--0-0-0-0-0-0-0-0-0-0-0-0-|-3--1--3h5p3-1h3p1--||


    PM--------------------------------------------------------------|
    S S S S S S S S S S S S S S S S   S S S S S S S S S S S S S S S S
||----------------------------------|----------------------------------|
||o---------------------------------|----------------------------------|
||----------------------------------|----------------------------------|
||----------------------------------|----------------------------------|
||o---------------------------------|----------------------------------|
||--3-3-3-3-3-3-3-3-3-3-3-3-3-3-3-3-|-5-5-5-5-5-5-5-5-5-5-5-5-5-5-5-5--|


  PM--------------------------------------------------------------|
  S S S S S S S S S S S S S S S S   S S S S S S S S S S S S S S S S
|---------------------------------|----------------------------------||
|---------------------------------|---------------------------------o||
|---------------------------------|----------------------------------||
|---------------------------------|----------------------------------||
|---------------------------------|-5-5-5-5-5-5-5-5-5-5-5-5-5-5-5-5-o||
|-4-4-4-4-4-4-4-4-4-4-4-4-4-4-4-4-|----------------------------------||


    Gtr I
    PM----------------------------|      PM--------------------|
    S S S S S S S S S S S S S S S S   Q  S S S S S S S S S S S S
||----------------------------------|----------------------------|
||o---------------------------------|----------------------------|
||----------------------------------|----------------------------|
||----------------------------------|----------------------------|
||o---------------------------------|-4--------------------------|
||--0-0-0-0-0-0-0-0-0-0-0-0-0-0-0-0-|-5--0-0-0-0-0-0-0-0-0-0-0-0-|


     PM--------------------|
                                     |-3-| |-3-|
  Q  S S S S S S S S S S S S   Q  Q  S S S S S S  4x
|----------------------------|--------------------||
|----------------------------|-------------------o||
|----------------------------|--------------------||
|----------------------------|--------------------||
|-2--------------------------|-5--3--------------o||
|-3--0-0-0-0-0-0-0-0-0-0-0-0-|-3--1--3h5p3-1h3p1--||


    PM--------------------------------------------------------------|
    S S S S S S S S S S S S S S S S   S S S S S S S S S S S S S S S S
||----------------------------------|----------------------------------|
||o---------------------------------|----------------------------------|
||----------------------------------|----------------------------------|
||----------------------------------|----------------------------------|
||o---------------------------------|----------------------------------|
||--3-3-3-3-3-3-3-3-3-3-3-3-3-3-3-3-|-5-5-5-5-5-5-5-5-5-5-5-5-5-5-5-5--|


  PM--------------------------------------------------------------|
  S S S S S S S S S S S S S S S S   S S S S S S S S S S S S S S S S
|---------------------------------|----------------------------------||
|---------------------------------|---------------------------------o||
|---------------------------------|----------------------------------||
|---------------------------------|----------------------------------||
|---------------------------------|-5-5-5-5-5-5-5-5-5-5-5-5-5-5-5-5-o||
|-4-4-4-4-4-4-4-4-4-4-4-4-4-4-4-4-|----------------------------------||


  Q=150
  W          H     H
|----------|------------*|
|----------|------------*|
|----------|------------*|
|----------|------------*|
|-2--------|-2\---------*|
|-0--------|-0\---------*|


Duration Legend
---------------
W - whole; H - half; Q - quarter; E - 8th; S - 16th;
T - 32nd; X - 64th; a - acciaccatura
+ - note tied to previous; . - note dotted; .. - note double dotted
Uncapitalized letters represent notes that are staccato (1/2 duration)
Irregular groupings are notated above the duration line
Duration letters will always appear directly above the note/fret number it
represents the duration for.  Duration letters with no fret number below them
represent rests.  Multi-bar rests are notated in the form Wxn, where n is the
number of bars to rest for.  Low melody durations appear below the staff

Tablature Legend
----------------
 h   - hammer-on
 p   - pull-off
 b   - bend
 pb  - pre-bend
 r   - bend release (if no number after the r, then release immediately)
 /\  - slide into or out of (from/to "nowhere")
 s   - legato slide
 S   - shift slide
<n>  - natural harmonic
[n]  - artificial harmonic
n(n) - tapped harmonic
 ~   - vibrato
 tr  - trill
 T   - tap
 TP  - trem. picking
 PM  - palm muting
\n/  - tremolo bar dip; n = amount to dip
 \n  - tremolo bar down
 n/  - tremolo bar up
/n\  - tremolo bar inverted dip
 =   - hold bend; also acts as connecting device for hammers/pulls
 <>  - volume swell (louder/softer)
 x   - on rhythm slash represents muted slash
 o   - on rhythm slash represents single note slash

Misc Legend
-----------
 |  - bar
||  - double bar
||o - repeat start
o|| - repeat end
*|  - double bar (ending)
 :  - bar (freetime)
 $  - Segno
 &  - Coda
Tempo markers - <E/E./Q/Q./H/H.> = BPM(8/16=s8/s16),
where s8 = swing 8ths, s16 = swing 16ths

  Visit MetalTabs.com for more metal tablature

bottom separator

Contact Us | Privacy Policy | Disclaimer | Legal Notice
Copyright © 2001-2014 MetalTabs.com. All Rights Reserved.