top separator

Home

Forum

What's New

Submit a Tab

FAQ

Links

Contact Us

Link to Us

MetalTabs.com logo

Bands

0-9

A

B

C

D

E

F

G

H

I

J

K

L

M

N

O

P

Q

R

S

T

U

V

W

X

Y

Z

Search

What

Where
 

Sodom - "Tired And Red" Guitar Tab

Plain Text Version
More Sodom Tabs

Hits: 9246
Rated: 3.67 out of 5 (9 votes)
Updated: 2005-02-02 06:01:48

 

By:

MetalThrashingMad

sendpm.gif

email.gif

Important note
This tab is available online because we obtained explicit permission from Sodom or their label.


#----------------------------------PLEASE NOTE---------------------------------#
#This file is the author's own work and represents their interpretation of the #
#song. You may only use this file for private study, scholarship, or research. #
#Unless specified otherwise, this is NOT an official tab from the band members.#
#------------------------------------------------------------------------------#

  Visit MetalTabs.com for more metal tablature
  
Band: Sodom
Album: Agent Orange
Song: Tired and Red
Copyright (c) Steamhammer 1990
Version: Final - January 31, 2004
Transcribed By: Steve - MetalThrashingMad
Email: Thrasher502@hotmail.com

* - palm mute                    /
s - slide                       /
~ - vibrato                    /   - bend  up as indicated
h - hammer on
p - pull off
t - right hand tapping
( ) - sustained note              - bend down as indicated
[] - side note
% - end riff
nh - natural harmonic            |
ph - pinched harmonic            |
tr - trill                       | - pre-bend as indicated
# - percussive note
.+ - continue to next staff      - - - - - hold note as indicated
Suffixes for bends:
5 - half step
1 - whole step
1.5 - step and a half
2 - two steps
2.5 - two and a half steps
[w/bar] - use tremolo bar

Gitarre- Frank "Blackfire" Gosdzik
Tuning E A D G B E


[play 4 times]
|---------------------------------------------------------------------|
|---------------------------------------------------------------------|
|---------------------------------------------------------------------|
|---------------------8-----------------------------------------------|
|---------------------7----------------7----------------4-----4-----4-|
|-0000-0000-0000-0000---0000-0000-0000-6-0000-0000-0000-2-0-0-2-0-0-2-|
  **** **** **** ****   **** **** ****   **** **** ****   * *   * *

|--------|
|--------|
|--------|
|--------|
|-2~~~~~-|
|-0~~~~~-%


|------------------------------------------------------------------------|
|------------------------------------------------------------------------|
|------------------------------------------------------------------------|
|------------------------------------------------------------------------|
|------------------2222222222222222-333333333333333333333333333333333333-|
|-0000000000000000-------------------------------------------------------|
  **************** **************** ************************************

|------------------------------------------------------------------------|
|------------------------------------------------------------------------|
|------------------------------------------------------------------------|
|------------------------------------------------------------------------|
|------------------2222222222222222-111111111111111111111111111111111111-|
|-0000000000000000-------------------------------------------------------|
  **************** **************** ************************************

|------------------------------------------------------------------------|
|------------------------------------------------------------------------|
|------------------------------------------------------------------------|
|------------------------------------------------------------------------|
|------------------2222222222222222-333333333333333333333333333333333333-|
|-0000000000000000-------------------------------------------------------|
  **************** **************** ************************************

|---------------------------------------------------------------------|
|---------------------------------------------------------------------|
|---------------------------------------------------------------------|
|---------------------------------------------------------------------|
|------------------2222222222222222-11111111111111111111111111111111s-|
|-0000000000000000----------------------------------------------------%
  **************** **************** ********************************


[play twice]
|-------------------------------------------------------------|
|-------------------------------------------------------------|
|-------------------------------------------------------------|
|-2------------------5-------3--2-------------------5---4-----|
|-0------------------3---5---1--0-------------------3---2---4-|
|---00-0000-0000-0000---0-3-0------00-0000-0000-0000---0---0-2-|
    ** **** **** ****   *   *      ** **** **** ****   *   *


|------------------------------------------------------------------|
|------------------------------------------------------------------|
|------------------------------------------------------------------|
|-2-------------------5-------3--2-------------------5-------------|
|-0-------------------3---5---1--0-------------------3---------4-3-|
|---00-0000-0000-0000---0-3-0------00-0000-0000-0000---00-0000-2-1-%
    ** **** **** ****   *   *      ** **** **** ****   ** ****


|------------------------------------------------------------------------|
|------------------------------------------------------------------------|
|------------------------------------------------------------------------|
|------------------------------------------------------------------------|
|------------------2222222222222222-333333333333333333333333333333333333-|
|-0000000000000000-------------------------------------------------------|
  **************** **************** ************************************

|------------------------------------------------------------------------|
|------------------------------------------------------------------------|
|------------------------------------------------------------------------|
|------------------------------------------------------------------------|
|------------------2222222222222222-111111111111111111111111111111111111-|
|-0000000000000000-------------------------------------------------------|
  **************** **************** ************************************

|------------------------------------------------------------------------|
|------------------------------------------------------------------------|
|------------------------------------------------------------------------|
|------------------------------------------------------------------------|
|------------------2222222222222222-333333333333333333333333333333333333-|
|-0000000000000000-------------------------------------------------------|
  **************** **************** ************************************

|--------------------------------------------------------------------|
|--------------------------------------------------------------------|
|--------------------------------------------------------------------|
|--------------------------------------------------------------------|
|------------------2222222222222222-11111111111111111111111111111111-|
|-0000000000000000---------------------------------------------------%
  **************** **************** ********************************


[play twice]
|-------------------------------------------------------------|
|-------------------------------------------------------------|
|-------------------------------------------------------------|
|-2------------------5-------3--2-------------------5---4-----|
|-0------------------3---5---1--0-------------------3---2---4-|
|---00-0000-0000-0000---0-3-0------00-0000-0000-0000---0---0-2-|
    ** **** **** ****   *   *      ** **** **** ****   *   *


|------------------------------------------------------------------|
|------------------------------------------------------------------|
|------------------------------------------------------------------|
|-2-------------------5-------3--2-------------------5-------------|
|-0-------------------3---5---1--0-------------------3---------4-3-|
|---00-0000-0000-0000---0-3-0------00-0000-0000-0000---00-0000-2-1-%
    ** **** **** ****   *   *      ** **** **** ****   ** ****


|--------|
|--------|
|--------|
|--------|
|-2~~~~~-|
|-0~~~~~-%


|----------------------------------------------------------------|
|----------------------------------------------------------------|
|----------------------------------------------------------------|
|----------------------------------------------------------------|
|-2--------------------------------------------------------------|
|-0--0-0-0-0-0-0-0-0-0-0-0-0-0-0-0-0-0-0-0-0-0-0-0-0-0-0-0-0-0-0-%
     * * * * * * * * * * * * * * * * * * * * * * * * * * * * * *


[play twice]
|-------------------------------------------------------------------|
|-------------------------------------------------------------------|
|-------------------------------------------------------------------|
|-8s9---8s9-----------------------10s9---10s9-----------------------|
|-6s7---6s7------------------------8s7----8s7-----------------------|
|-----0-----0-0-0-0-0-0-0-0-0-0-0------0------0-0-0-0-0-0-0-0-0-0-0-|
      *     * * * * * * * * * * *      *      * * * * * * * * * * *

|-------------------------------------------------------------------|
|-------------------------------------------------------------------|
|-------------------------------------------------------------------|
|-8s9---8s9-----------------------12s9---12s9-----------------------|
|-6s7---6s7-----------------------10s7---10s7-----------------------|
|-----0-----0-0-0-0-0-0-0-0-0-0-0------0------0-0-0-0-0-0-0-0-0-0-0-%
      *     * * * * * * * * * * *      *      * * * * * * * * * * *


[play twice]
|---------------------------------|
|---------------------------------|
|---------------------------------|
|---------------------------------|
|-4s3----4s3----4s3----4s3----2-3-|
|-2s1-1--2s1-1--2s2-1--2s1-1--0-1-%
      *      *      *      *


|---------------------------------------------------------------|
|---------------------------------------------------------------|
|---------------------------------------------------------------|
|---------------------------------------------------------------|
|-2--------------------------------3-2-3------------------------|
|-0-0-0-0-0-0-0-0-0-0-0-0-0-0-0-0--1-0-1--0-0-0-0-0-0-0-0-0-0-0-%
    * * * * * * * * * * * * * * *         * * * * * * * * * * *


[play twice]
|---------------------------------|
|---------------------------------|
|---------------------------------|
|---------------------------------|
|-4s3----4s3----4s3----4s3----2-3-|
|-2s1-1--2s1-1--2s2-1--2s1-1--0-1-%
      *      *      *      *


[play 3 times]
|-----------------------------------------|
|-----------------------------------------|
|-----------------------------------------|
|-----------------------------------------|
|-2---2---2-3---3---3-4---4---4---4---4-3-|
|-0-0-0-0-0-1-1-1-1-1-2-2-2-2-2-2-2-2-2-1-%
    *   *     *   *     *   *   *   *


|---------------------|
|---------------------|
|---------------------|
|---------------------|
|-2---2---2-3---3---3-|
|-0-0-0-0-0-1-1-1-1-1-%
    *   *     *   *


|--------------------------------|
|--------------------------------|
|--------------------------------|
|--------------------------------|
|-2------------------------------|
|-0--0-0-0-0-0-0-0-0-0-0-0-0-0-0-%
     * * * * * * * * * * * * * *


[play twice]
|-------------------------------------------------------------------|
|-------------------------------------------------------------------|
|-------------------------------------------------------------------|
|-8s9---8s9-----------------------10s9---10s9-----------------------|
|-6s7---6s7------------------------8s7----8s7-----------------------|
|-----0-----0-0-0-0-0-0-0-0-0-0-0------0------0-0-0-0-0-0-0-0-0-0-0-|
      *     * * * * * * * * * * *      *      * * * * * * * * * * *

|-------------------------------------------------------------------|
|-------------------------------------------------------------------|
|-------------------------------------------------------------------|
|-8s9---8s9-----------------------12s9---12s9-----------------------|
|-6s7---6s7-----------------------10s7---10s7-----------------------|
|-----0-----0-0-0-0-0-0-0-0-0-0-0------0------0-0-0-0-0-0-0-0-0-0-0-%
      *     * * * * * * * * * * *      *      * * * * * * * * * * *


|------------|
|------------|
|------------|
|------------|
|-2--2--2--2-|
|-0--0--0--0-%
  *  *  *  *


|------------------------------------------------------------------------|
|------------------------------------------------------------------------|
|------------------------------------------------------------------------|
|------------------------------------------------------------------------|
|------------------2222222222222222-333333333333333333333333333333333333-|
|-0000000000000000-------------------------------------------------------|
  **************** **************** ************************************

|------------------------------------------------------------------------|
|------------------------------------------------------------------------|
|------------------------------------------------------------------------|
|------------------------------------------------------------------------|
|------------------2222222222222222-111111111111111111111111111111111111-|
|-0000000000000000-------------------------------------------------------|
  **************** **************** ************************************

|------------------------------------------------------------------------|
|------------------------------------------------------------------------|
|------------------------------------------------------------------------|
|------------------------------------------------------------------------|
|------------------2222222222222222-333333333333333333333333333333333333-|
|-0000000000000000-------------------------------------------------------|
  **************** **************** ************************************

|---------------------------------------------------------------------|
|---------------------------------------------------------------------|
|---------------------------------------------------------------------|
|---------------------------------------------------------------------|
|------------------2222222222222222-11111111111111111111111111111111s-|
|-0000000000000000----------------------------------------------------%
  **************** **************** ********************************


[play twice]
|-----------------------------------------------------------|
|-----------------------------------------------------------|
|-----------------------------------------------------------|
|-2----------------5-------3--2-------------------5---4-----|
|-0----------------3---5---1--0-------------------3---2---4-|
|---0000-0000-0000---0-3-0------00-0000-0000-0000---0---0-2-|
    **** **** ****   *   *      ** **** **** ****   *   *


|-----------------------------------------------------------------|
|-----------------------------------------------------------------|
|-----------------------------------------------------------------|
|-2------------------5-------3--2-------------------5-------------|
|-0------------------3---5---1--0-------------------3---------4-3-|
|---0000-0000-000000---0-3-0------00-0000-0000-0000---00-0000-2-1-%
    **** **** ******   *   *      ** **** **** ****   ** ****


|------------------------------------------------------------------------|
|------------------------------------------------------------------------|
|------------------------------------------------------------------------|
|------------------------------------------------------------------------|
|------------------2222222222222222-333333333333333333333333333333333333-|
|-0000000000000000-------------------------------------------------------|
  **************** **************** ************************************

|------------------------------------------------------------------------|
|------------------------------------------------------------------------|
|------------------------------------------------------------------------|
|------------------------------------------------------------------------|
|------------------2222222222222222-111111111111111111111111111111111111-|
|-0000000000000000-------------------------------------------------------|
  **************** **************** ************************************

|------------------------------------------------------------------------|
|------------------------------------------------------------------------|
|------------------------------------------------------------------------|
|------------------------------------------------------------------------|
|------------------2222222222222222-333333333333333333333333333333333333-|
|-0000000000000000-------------------------------------------------------|
  **************** **************** ************************************


|----------------------------------------------------------------------------|
|----------------------------------------------------------------------------|
|----------------------------------------------------------------------------|
|----------------------------------------------------------------------------|
|------------------2222222222222222-11111111111111111111111111111111--2~~~~~-|
|-0000000000000000----------------------------------------------------0~~~~~-%
  **************** **************** ********************************


[play approximately 3 times]
|----------------------------------------------|
|----------------------------------------------|
|----------------------------------------------|
|----------------------------------------------|
|-2-----2-----2---3---3--2-----2-----3---3---5-|
|-0-0-0-0-0-0-0-0-1-0-1--0-0-0-0-0-0-1-0-1-0-3-%
    * *   * *   *   *      * *   * *   *   *

END

  Visit MetalTabs.com for more metal tablature

bottom separator

Contact Us | Privacy Policy | Disclaimer | Legal Notice
Copyright © 2001-2014 MetalTabs.com. All Rights Reserved.