top separator

Home

Forum

What's New

Submit a Tab

FAQ

Links

Contact Us

Link to Us

MuSpy.com

MetalTabs.com logo

Bands

0-9

A

B

C

D

E

F

G

H

I

J

K

L

M

N

O

P

Q

R

S

T

U

V

W

X

Y

Z

Search

What

Where
 

Necrophobic - "The Nocturnal Silence" Guitar Tab

Plain Text Version
More Necrophobic Tabs

Hits: 3951
Rated: 3.00 out of 5 (4 votes)
Updated: 2004-11-21 09:24:28

 

By:

EZURATE

sendpm.gif

email.gif

Important note
This tab is available online because we obtained explicit permission from Necrophobic or their label.


#----------------------------------PLEASE NOTE---------------------------------#
#This file is the author's own work and represents their interpretation of the #
#song. You may only use this file for private study, scholarship, or research. #
#Unless specified otherwise, this is NOT an official tab from the band members.#
#------------------------------------------------------------------------------#

  Visit MetalTabs.com for more metal tablature
  
Band: NECROPHOBIC
Album: THE NOCTURNAL SILENCE
Song: THE NOCTURNAL SILENCE
Copyright: BLACK MARK PRODUCTION 1993

Transcribed By: Tony Baranowski
E-mail: ezurate@sbcglobal.net
Version 1.0 - November 14, 2004

X = rest
~ = mild vibrato
p = pull-off
\ = legato slide

Tuning: D/G/C/F/A/D

     1 & 2 & 3 & 4 &   1 & 2 & 3 & 4 &
     Intro (clean electric)
||---Guitar-#1-------|-----------------|
||-------------------|-----------------|
||o--9-9-8-8-5-5-8-8-|-9-9-8-8-5-5-8-8-|
||o------------------|-----------------|
||-------------------|-----------------|
||-------------------|-----------------|
|                                      |
||---Guitar-#2-------|-----------------|
||-------------------|-----------------|
||-------------------|-----------------|
||-------------------|-----------------|
||-------------------|-----------------|
||---0------------(0)|-0------------(0)|

  1  &  2 & 3 & 4 &   1  &  2 & 3 & 4 &
|-------------------|---------------------||
|-------------------|---------------------||
|-------------------|--------------------o||
|-10-10-9-9-6-6-5-5-|-10-10-9-9-6-6-5-5--o||
|-------------------|---------------------||
|-------------------|---------------------||
|                                         ||
|-------------------|---------------------||
|-------------------|---------------------||
|-------------------|--------------------o||
|-------------------|--------------------o||
|-------------------|---------------------||
|-8--------------(8)|-8--------------(8)--||

     1 & 2 & 3 & 4 &   1 & 2 & 3 & 4 &
     Intro continued (distortion + drums enter)
||-------------------|-----------------|
||-------------------|-----------------|
||o--9-9-8-8-5-5-8-8-|-9-9-8-8-5-5-8-8-|
||o------------------|-----------------|
||-------------------|-----------------|
||-------------------|-----------------|
|                                      |
||-------------------|-----------------|
||-------------------|-----------------|
||-------------------|-----------------|
||-------------------|-----------------|
||-------------------|-----------------|
||---0------------(0)|-0------------(0)|

  1  &  2 & 3 & 4 &   1  &  2 & 3 & 4 &
|-------------------|---------------------||
|-------------------|---------------------||
|-------------------|--------------------o||
|-10-10-9-9-6-6-5-5-|-10-10-9-9-6-6-5-5--o||
|-------------------|---------------------||
|-------------------|---------------------||
|                                         ||
|-------------------|---------------------||
|-------------------|---------------------||
|-------------------|--------------------o||
|-------------------|--------------------o||
|-------------------|---------------------||
|-8--------------(8)|-8--------------(8)--||

    1e&a 2e&a 3e&a 4e&a   1e&a 2e&a 3e&a 4e&a
    Intro continued
|---Both-Guitars--------|---------------------|
|-----------------------|---------------------|
|-----------------------|---------------------|
|---2222-1111------1111-|-2222-1111------1111-|
|-------------3333------|-----------3333------|
|-----------------------|---------------------|

    1e&a 2e&a 3e&a 4e&a   1e&a 2e&a 3e&a 4e&a
|-----------------------|---------------------|
|-----------------------|---------------------|
|-----------------------|---------------------|
|-----------------------|---------------------|
|---3333-2222-----------|-3333-2222-----------|
|-------------4444-3333-|-----------4444-3333-|

    1e&a 2e&a 3e&a 4e&a   1e&a 2e&a 3e&a 4e&a
    Intro continued (increase tempo 50%)
|---Both-Guitars--------|---------------------|
|-----------------------|---------------------|
|-----------------------|---------------------|
|---2222-1111------1111-|-2222-1111------1111-|
|-------------3333------|-----------3333------|
|-----------------------|---------------------|

    1e&a 2e&a 3e&a 4e&a   1e&a 2e&a 3e&a 4e&a
|-----------------------|---------------------|
|-----------------------|---------------------|
|-----------------------|---------------------|
|-----------------------|---------------------|
|---3333-2222-----------|-3333-2222-----------|
|-------------4444-3333-|-----------4444-3333-|

    1 2 3 4   1 2 3 4   1 2 3 4    1  2 3 4
    Intro continued
|---Both-Guitars------|----------|----------|
|-----------|---------|----------|----------|
|-----------|---------|----------|----------|
|---9-8-5-8-|-9-8-5-8-|----------|----------|
|---7-6-3-6-|-7-6-3-6-|-10-9-6-5-|-10-9-6-5-|
|-----------|---------|-8--7-4-3-|-8--7-4-3-|

  E5
  1 2 3 4   1 2 3 4   1 2 3 4
|---------|---------|----------|
|---------|---------|----------|
|---------|---------|----------|
|---------|---------|-2--------|
|-2-2-2-2-|-2-2-2-2-|-2--------|
|-0-0-0-0-|-0-0-0-0-|-0-X--(X)-|

     1 & 2 & 3 & 4 &   1 & 2 & 3  e & a 4 e & a
||---Verse-----------|---------------------------||
||-------------------|---------------------------||
||o------------------|--------------------------o||
||o------------------|------------7-8-5-7-3-5-2-o||
||---12--8---11--7---|-12--8---11----------------||
||---10--6---9---5---|-10--6---9-----------------||

     1 2 3 4
||---Riff-A----||
||-------------||
||o-----------o||
||o-----------o||
||---2-4-5-7---||
||---0-2-3-5---||

||---Lick-----------------------------------||
||------------------------------------------||
||o----------------------------------------o||
||o----------------------------------------o||
||-----7-8-7~-9-8-9~-10-9-10-11-10-9\-------||
||---0--------------------------------(0)---||

    1e&a  2e&a 3 & 4 &   1e&a 2e&a 3 & 4 &
||---Verse-II----------|---------------------||
||---------------------|---------------------||
||o--------------------|--------------------o||
||o--------------------|--------------------o||
||--------7777---3-5-6-|------7777---5-6-8---||
||---0000------0-1-3-4-|-0000------0-3-4-6---||

     1  & a 2  &  a  3  & a 4  &  a    1 & a 2 & a 3 & a 4 & a
||---Chorus--------------------------|-------------------------|
||-----------------------------------|-------------------------|
||o----------------------------------|-------------------------|
||o--10-9-9-10-10-10-10-9-9-10-10-10-|-9-8-8-9-9-9-9-8-8-9-9-9-|
||---7--7-7-7--7--7--7--7-7-7--7--7--|-6-6-6-6-6-6-6-6-6-6-6-6-|
||-----------------------------------|-------------------------|

    1  & a 2  &  a  3  & a 4  &  a    1 & a 2 & a 3 & a 4 & a
|-----------------------------------|-------------------------|
|-----------------------------------|-------------------------|
|-----------------------------------|-------------------------|
|---10-9-9-10-10-10-10-9-9-10-10-10-|-8-8-8-8-5-5-5-8-8-8-5-4-|
|---7--7-7-7--7--7--7--7-7-7--7--7--|-6-6-6-6-3-3-3-6-6-6-3-2-|
|-----------------------------------|-------------------------|

    1 &  a  2  & a 3 &  a  4  & a   1 & a 2 & a 3 & a 4 & a
|---------------------------------|-------------------------|
|---------------------------------|-------------------------|
|---------------------------------|-------------------------|
|---9-10-10-10-9-9-9-10-10-10-9-9-|-8-9-9-9-8-8-8-9-9-9-8-8-|
|---7-7--7--7--7-7-7-7--7--7--7-7-|-6-6-6-6-6-6-6-6-6-6-6-6-|
|---------------------------------|-------------------------|

    1  & a 2  &  a  3  & a 4  &  a  1 & a 2 & a 3 & a 4 & a
|---------------------------------|--------------------------||
|---------------------------------|--------------------------||
|---------------------------------|-------------------------o||
|---9-10-10-10-9-9-9-10-10-10-9-9-|-8-8-8-8-5-5-5-8-8-8-5-4-o||
|---7-7--7--7--7-7-7-7--7--7--7-7-|-6-6-6-6-3-3-3-6-6-6-3-2--||
|---------------------------------|--------------------------||

     1 & 2 & 3 & 4 &   1 & 2 & 3 & 4 &   1 & 2 & 3 & 4 &   1 & 2 & 3 & 4 &
||---Pre-solo--------|-----------------|-----------------|-------------------||
||-------------------|-----------------|-----------------|-------------------||
||o--9---9---9---9---|-8---8---5-----4-|-9---9---9---9---|-8-----8-5-----4--o||
||o------------------|-----------------|-----------------|------------------o||
||-----7---7---7---7-|---6---6---3-2---|---7---7---7---7-|---6-6-----3-2-----||
||-------------------|-----------------|-------------------------------------||


     1    2    3     4      1        2        3       4
|----Solo-----------------|-------------------------------|
|-------------------------|-------------------------------|
|-------------------------|-------------------------------|
|----9--------------(9)---|-8-------(8)-------5-------4---|
|----7--------------(7)---|-6-------(6)-------3-------2---|
|----0--------------------|-------------------------------|
|                                                         |
|-------------------------|-------------------------------|
|-------------------------|-------------------------------|
|----9~-9-11-12~-11-12-14-|-14p12p11\9-----9--------------|
|-------------------------|------------10~---10-9~--------|
|-------------------------|------------------------10~----|
|-------------------------|----------------------------12-|



  1 2 3 4    1  2  3 4      1 2 3 4   1  2  3 4   1 2 3 4    1  2  3 4
|----------|-----------|------------|-----------|----------|-----------|
|----------|-----------|------------|-----------|----------|-----------|
|----------|-----------|------------|-----------|----------|-----------|
|-9----(9)-|-8-(8)-5-4-|---9----(9)-|-8-(8)-5-4-|-9----(9)-|-8-(8)-5-4-|
|-7----(7)-|-6-(6)-3-2-|---7----(7)-|-6-(6)-3-2-|-7----(7)-|-6-(6)-3-2-|
|-0--------|-----------|---0--------|-----------|-0--------|-----------|
|                                               |
|----------|-----------|------------|-----------|----------|-----------|
|----------|-----------|------------|-----------|----------|-----------|
|----------|-----------|------------|-----------|----------|-----------|
|----------|-----------|------------|-----------|----------|-----------|
|----------|-----------|------------|-----------|----------|-----------|
|----------|-----------|------------|-----------|----------|-----------|


|---Out-------|
|-------------|
|-------------|
|-------------|
|-------------|
|---0---(0)---|

Full Score Arrangement:
Intro: 1x
Verse: 4x
Riff A: 4x
Verse: 4x
Lick: 4x
Verse II: 4x
Riff A: 4x
Verse II:4x
Chorus: 2x
Pre-solo: 2X
Solo: 1x
Riff A: 4x
Out: 1x

  Visit MetalTabs.com for more metal tablature

bottom separator

Contact Us | Privacy Policy | Disclaimer | Legal Notice
Copyright © 2001-2014 MetalTabs.com. All Rights Reserved.