top separator

Home

Forum

What's New

Submit a Tab

FAQ

Links

Contact Us

Link to Us

MetalTabs.com logo

Bands

0-9

A

B

C

D

E

F

G

H

I

J

K

L

M

N

O

P

Q

R

S

T

U

V

W

X

Y

Z

Search

What

Where
 

Falkenbach - "Laeknishendr" Guitar Tab

Plain Text Version
More Falkenbach Tabs

Hits: 5596
Rated: 3.75 out of 5 (4 votes)
Updated: 2004-11-21 09:09:26

 

By:

sendpm.gif

email.gif

Important note
We did our best to reach Falkenbach and ask for their permission to publish this tab. Unfortunately they did not respond to our requests or we could not find a way to contact them. This tab is available online until Falkenbach tells us to take it down.


#----------------------------------PLEASE NOTE---------------------------------#
#This file is the author's own work and represents their interpretation of the #
#song. You may only use this file for private study, scholarship, or research. #
#Unless specified otherwise, this is NOT an official tab from the band members.#
#------------------------------------------------------------------------------#

  Visit MetalTabs.com for more metal tablature
  
Band:  Falkenbach
Album: ...En Their Medh Riki Fara
Song:  Laeknishendr


Transcribed By: Moondancer
Email:          lopistofeles@g02.pl


Tunning E A D G B E


Acoustic part:

|-------------------------------------------------------------------|
|--------1-------1--0-----------------------------------------------|
|--2-2-2----2--2------2-0-2-----------------------------------------|
|-------------------------------------------------------------------|
|-------------------------------------------------------------------|
|-------------------------------------------------------------------|

|-------------------------0-1---------------------------------------|
|--------1-------1--3-1-3-------------------------------------------|
|--2-2-2----2--2-------------3--------------------------------------|
|-------------------------------------------------------------------|
|-------------------------------------------------------------------|
|-------------------------------------------------------------------|

|-------------------------------------------------------------------|
|--------1-------1--0-----------------------------------------------|
|--2-2-2----2--2------2-0-2-----------------------------------------|
|-------------------------------------------------------------------|
|-------------------------------------------------------------------|
|-------------------------------------------------------------------|

|--0-0--------------------------------------------------------------|
|------3-1--3-1--0---0----------------------------------------------|
|------------------2---1-2------------------------------------------|
|-------------------------------------------------------------------|
|-------------------------------------------------------------------|
|-------------------------------------------------------------------|

|--0-0--------------------------------------------------------------|
|------3-1--3-1--0---0----------------------------------------------|
|------------------2---1-2------------------------------------------|
|-------------------------------------------------------------------|
|-------------------------------------------------------------------|
|-------------------------------------------------------------------|


Repeat 3 times

END

  Visit MetalTabs.com for more metal tablature

bottom separator

Contact Us | Privacy Policy | Disclaimer | Legal Notice
Copyright © 2001-2014 MetalTabs.com. All Rights Reserved.