top separator

Home

Forum

What's New

Submit a Tab

FAQ

Links

Contact Us

Link to Us

MetalTabs.com logo

Bands

0-9

A

B

C

D

E

F

G

H

I

J

K

L

M

N

O

P

Q

R

S

T

U

V

W

X

Y

Z

Search

What

Where
 

Darkthrone - "A Blaze In The Northern Sky" Guitar Tab

Plain Text Version
More Darkthrone Tabs

Hits: 8743
Rated: 4.17 out of 5 (6 votes)
Updated: 2004-11-21 09:07:54

 

By:

Necro Daemon

sendpm.gif

email.gif

Important note
This tab is available online because we obtained explicit permission from Darkthrone or their label.


#----------------------------------PLEASE NOTE---------------------------------#
#This file is the author's own work and represents their interpretation of the #
#song. You may only use this file for private study, scholarship, or research. #
#Unless specified otherwise, this is NOT an official tab from the band members.#
#------------------------------------------------------------------------------#

  Visit MetalTabs.com for more metal tablature
  
Artist : Darkthrone
Song   : A Blaze In The Nothern Sky
Album  : A Blaze In The Nothern Sky
Copyright (c) Peaceville Records, 1991

Tabbed by Necro Daemon

Email: SHAWNMICHAELZ@hotmail.com


Riff 1(x4)

|------------------------------------------------------
|------------------------------------------------------
|----------------------44-33---------------------------
|-444444444444-333-222-22-11---------------------------
|-222222222222-111-000--------666-555-4444----2222-----
|-----------------------------444-333-2222...-0000...--

Riff 2a(x2)

|-------------------------------------
|-------------------------------------
|-------------------------------------
|-------------------------------------
|-6--7-6--7-66-7-66-7-66-7-66-5-6-5-6-
|-4--5-4--5-44-5-44-5-44-5-44-3-3-3-3-

Riff 2b(x4)
         1,2,3.  4.
|-------|------|----
|-------|------|----
|-------|------|----
|-------|------|----
|-44455-|55577-|-77-
|-22222-|33333-|-55-

Riff 4(x4)

|------------------
|------------------
|------------------
|------------------
|-6666-55555577-77-
|-4444-33333333-55-

Main Riff(x8)
|-----------------------
|-----------------------
|-----------------------
|------------------6-----
|----------00-22--4-----
|-0-1-222-0------0---------

Riff 5(x4)

|----------
|----------
|-----3...-
|-5...-----
|----------
|----------

Harmonies at 4th time
|-------
|-8-787-
|-------
|-------
|-------
|-------

Riff 6a

|-----------------
|-----------------
|-----------------
|---9-8-------8---
|-------10-11---7-
|-0---------------

6b
|---------
|---------
|---------
|-------7-
|-3-4-8-5-
|-1-2-6---
+
|---------
|---------
|-5-5-6-8-
|---------
|---------
|---------

Repeat 6a
Repeat 6b
+
|---------
|---------
|-8-8-6-5-
|---------
|---------
|---------

Repeat Main Riff(x8)
Repeat complete Riff 2
Repeat Riff 4(x4)
Repeat Riff 1 Slower(x2)
With a little solo easy to do by ear!

End!!!!!!!!!!!!!!!!!!!!!!!!!!!!!

  Visit MetalTabs.com for more metal tablature

bottom separator

Contact Us | Privacy Policy | Disclaimer | Legal Notice
Copyright © 2001-2014 MetalTabs.com. All Rights Reserved.