top separator

Home

Forum

What's New

Submit a Tab

FAQ

Links

Contact Us

Link to Us

MetalTabs.com logo

Bands

0-9

A

B

C

D

E

F

G

H

I

J

K

L

M

N

O

P

Q

R

S

T

U

V

W

X

Y

Z

Search

What

Where
 

Nocturnal Breed - "Frantic Aggressor" Guitar Tab

Plain Text Version
More Nocturnal Breed Tabs

Hits: 3115
Rated: 3.00 out of 5 (2 votes)
Updated: 2004-11-20 17:30:19

 

By:

EZURATE

sendpm.gif

email.gif

Important note
This tab is available online because we obtained explicit permission from Nocturnal Breed or their label.


#----------------------------------PLEASE NOTE---------------------------------#
#This file is the author's own work and represents their interpretation of the #
#song. You may only use this file for private study, scholarship, or research. #
#Unless specified otherwise, this is NOT an official tab from the band members.#
#------------------------------------------------------------------------------#

  Visit MetalTabs.com for more metal tablature
  
Band: NOCTURNAL BREED
Album: AGGRESSOR
Song: FRANTIC AGGRESSOR
Copyright: HAMMERHEART RECORDS (1997)

Transcribed By: Tony Baranowski
E-mail: ezurate@sbcglobal.net
Version 1.0 - November 12, 2004

\ = legato slide
^ = palm-muting

Tuning: Standard

          F5E5      C5B5A5G#5
||---Riff-A---------------------|-------------------------------||
||------------------------------|-------------------------------||
||o-----------------------------|------------------------------o||
||o------10-9-------------------|-----10-9---------------------o||
||--------8-7------10\9-7-6-7/9-|------8-7-------10\9-7-6-7\6---||
||---0000------0000-8\7-5-4-5/7-|-0000------0000--8\7-5-4-5\4---||
     ^^^^      ^^^^               ^^^^      ^^^^

     D5                    A#5                     F5
||---Riff-B--------------|----------------------|----------------------|
||-----------------------|----------------------|----------------------|
||o----------------------|----------------------|----------------------|
||o--7--------7--------7-|-3--------3---------3-|-10-------10-------10-|
||---5-555555-5-555555-5-|-1-111111-1--111111-1-|--8-888888-8-888888-8-|
||-----------------------|----------------------|----------------------|
       ^^^^^^   ^^^^^^       ^^^^^^    ^^^^^^        ^^^^^^   ^^^^^^
      C#5
  |-----------------------|---------------------|---------------------|
  |-----------------------|---------------------|---------------------|
  |-----------------------|---------------------|---------------------|
  |---6--------6--------6-|-7--------7--------7-|-3--------3--------3-|
  |---4-444444-4-444444-4-|-5-555555-5-555555-5-|-1-111111-1-111111-1-|
  |-----------------------|---------------------|---------------------|
        ^^^^^^   ^^^^^^       ^^^^^^   ^^^^^^       ^^^^^^   ^^^^^^

  |-----------------------|---------------------------||
  |-----------------------|---------------------------||
  |-----------------------|--------------------------o||
  |--10-------10-------10-|-6--------6--------6--10--o||
  |---8-888888-8-888888-8-|-4-444444-4-444444-4--8----||
  |-----------------------|---------------------------||
        ^^^^^^   ^^^^^^       ^^^^^^   ^^^^^^

     B5        C5   A5    E5        F5   D5
||---Riff-C-------------|--------------------|
||----------------------|--------------------|
||o---------------------|--------------------|
||o---------------------|-9----9----10-9-7-9-|
||---9----9----10-9-7-9-|-7-77-7-77-8--7-5-7-|
||---7-77-7-77-8--7-5-7-|--------------------|
       ^^   ^^             ^^    ^^

                        G#5      F5
 |--------------------|--------------------||
 |--------------------|--------------------||
 |--------------------|-------------------o||
 |--------------------|-------------------o||
 |-9----9----10-9-7-9-|-6------6-3------3--||
 |-7-77-7-77-8--7-5-7-|-4-4444-4-1-1111-1--||
     ^^   ^^              ^^^^     ^^^^

    Outro
    B5
|------------|
|------------|
|------------|
|------------|
|---9-\------|
|---7-\------|


Full Score Arrangement:
Riff A: 5x
Riff B: 2x
Riff A: 4x
Riff B: 2x (solo)
Riff C: 4x
Riff A: 4x
Riff B: 2x
Riff C: 4x
Outro: 1x

  Visit MetalTabs.com for more metal tablature

bottom separator

Contact Us | Privacy Policy | Disclaimer | Legal Notice
Copyright © 2001-2014 MetalTabs.com. All Rights Reserved.