top separator

Home

Forum

What's New

Submit a Tab

FAQ

Links

Contact Us

Link to Us

MetalTabs.com logo

Bands

0-9

A

B

C

D

E

F

G

H

I

J

K

L

M

N

O

P

Q

R

S

T

U

V

W

X

Y

Z

Search

What

Where
 

Cattle Decapitation - "Mute Rain" Guitar Tab

Plain Text Version
More Cattle Decapitation Tabs

Hits: 2364
Updated: 2004-11-20 17:29:24

 

By:

GuitaristAt13

sendpm.gif

email.gif

Important note
This tab is available online because we obtained explicit permission from Cattle Decapitation or their label.


#----------------------------------PLEASE NOTE---------------------------------#
#This file is the author's own work and represents their interpretation of the #
#song. You may only use this file for private study, scholarship, or research. #
#Unless specified otherwise, this is NOT an official tab from the band members.#
#------------------------------------------------------------------------------#

  Visit MetalTabs.com for more metal tablature
  
Band: Cattle Decapitation
Album: Human Jerky
Song: Mute Rain
Copyright (c) ???? 1999
Version 1.0
Transcribed By: Guitarist At 13
Email: Testicle_Laceration@yahoo.com

.  - palm mute           /  - slide up to
\  - slide down to       ~  - vibrato
h  - hammer on           b  - Bend
p  - pull off            Suffixes for bend
t  - tap                 f  - full bend    h - half bend
ph - pinched harmonic    q  - quarter bend t - tap bend
*  - see comment         ^  - Hold bend    r release bend
x  - Stuccatto           ~  - vibrato bend
,  - slight palm mute    () - ghost note, sustained note
"  - tremolo note        <> - Trill

Tunning E A D G B E

|-------------------------------------------------------------------|
|-------------------------------------------------------------------|
|-------------------------------------------------------------------|
|-------------------------------------------------------------------| x4
|-------------------------------------------------------------------|
|-7-5-8-5-7-5-8-5---5-3-6b-5-3-6b---7-5-8-5-7-5-8-5---5-3-6b-5-3-6b-|

|-------------------------------------------------------------------|
|-------------------------------------------------------------------|
|-------------------------------------------------------------------|
|-------------------------------------------------------------------|
|-77-55-2---77-55-2--77-55-2----------------------------------------|
|-55-33-0---55-33-0--55-33-0--17///////////////////1----------------|
  .. ..     .. ..    .. ..

       x4                             x4
|-------------------------|--------------------------|
|-------------------------|--------------------------|
|-------------------------|--------------------------|
|-------------------------|--------------------------|
|-------------------------|--------------------------|
|--55-33-66-33-55-33-66-33|--77-55-88-55-77-55-88-55-|
   .. .. .. .. .. .. .. ..   .. .. .. .. .. .. .. ..

|-------------------------------------------------------------------|
|-------------------------------------------------------------------|
|-------------------------------------------------------------------|
|-------------------------------------------------------------------|
|-77-55-2---77-55-2--77-55-2----------------------------------------|
|-55-33-0---55-33-0--55-33-0--17///////////////////1----------------|

|-------------------------------------------------------------------|
|-------------------------------------------------------------------|
|--------6---------6---------6---------6----------------------------|
|--------5---------5---------5---------5----------------------------|
|-------------------------------------------------------------------|
|-0-0-0-0---0-0-0-0---0-0-0-0---0-0-0-0-----------------------------|
  . . . .   . . . .   . . . .   . . . .

|-------------------------------------------------------------------|
|-------------------------------------------------------------------|
|--------7---------7---------7---------7----------------------------|
|--------6---------6---------6---------6----------------------------|
|-------------------------------------------------------------------|
|-0-0-0-0---0-0-0-0---0-0-0-0---0-0-0-0-----------------------------|
  . . . .   . . . .   . . . .   . . . .

|-------------------------------------------------------------------|
|-------------------------------------------------------------------|
|-------------------------------------------------------------------|
|-------------------------------------------------------------------|
|-77-55-2---77-55-2--77-55-2----------------------------------------|
|-55-33-0---55-33-0--55-33-0----------------------------------------|
  .. ..     .. ..    .. ..

I'm not sure if it is at least 80% correct, it's pretty hard to hear the guitar,
post or send a message to my email if anything sounds wrong....rate!!

  Visit MetalTabs.com for more metal tablature

bottom separator

Contact Us | Privacy Policy | Disclaimer | Legal Notice
Copyright © 2001-2014 MetalTabs.com. All Rights Reserved.