top separator

Home

Forum

What's New

Submit a Tab

FAQ

Links

Contact Us

Link to Us

MetalTabs.com logo

Bands

0-9

A

B

C

D

E

F

G

H

I

J

K

L

M

N

O

P

Q

R

S

T

U

V

W

X

Y

Z

Search

What

Where
 

Cattle Decapitation - "Chunk Blower" Guitar Tab

Plain Text Version
More Cattle Decapitation Tabs

Hits: 4413
Rated: 4.40 out of 5 (5 votes)
Updated: 2005-01-21 06:05:46

 

By:

GuitaristAt13

sendpm.gif

email.gif

Important note
This tab is available online because we obtained explicit permission from Cattle Decapitation or their label.


#----------------------------------PLEASE NOTE---------------------------------#
#This file is the author's own work and represents their interpretation of the #
#song. You may only use this file for private study, scholarship, or research. #
#Unless specified otherwise, this is NOT an official tab from the band members.#
#------------------------------------------------------------------------------#

  Visit MetalTabs.com for more metal tablature
  
Band: Cattle Decapitation
Album: To Serve Man
Song: Chunk Blower

Copyright (c) Metal Blade Records 2002
Version 1.0
Transcribed By: Guitarist At 13
Email: Testicle_Laceration@yahoo.com

.  - palm mute           /  - slide up to
  - slide down to       ~  - vibrato
h  - hammer on           b  - Bend
p  - pull off            Suffixes for bend
t  - tap                 f  - full bend    h - half bend
ph - pinched harmonic    q  - quarter bend t - tap bend
*  - see comment         ^  - Hold bend    r release bend
x  - Stuccatto           ~  - vibrato bend
,  - slight palm mute    () - ghost note, sustained note
"  - tremolo note        <> - Trill

Tunning Eb

|-------------------------------------------------------------------|
|-------------------------------------------------------------------|
|-------------------------------------------------------------------|
|-------------------------------------------------------------------|
|-----9-9-9-10-9-----9-9-9-10-9-----9-9-9-10-9-----10-9-------------|
|--7--------------6--------------5--------------4-------------------|


|-------------------------------------------------------------------|
|-------------------------------------------------------------------|
|-------------------------------------------------------------------|
|-----------------------------9-------------------------------------|
|-----9-9-9-10-9-----9-9-9-10------9-9-9-10-9-----10-9--------------|
|--7--------------6--------------5--------------4-------------------|

|-------------------------------------------------------------------|
|-------------------------------------------------------------------|
|-------------------------------------------------------------------|
|-------------------------------------------------------------------|
|----------9-10-9----------9-10-9---------9-10-9----------10-9------|
|--7777777---------6666666--------5555555---------4444444-----------|

|-------------------------------------------------------------------|
|-------------------------------------------------------------------|
|-------------------------------------------------------------------|
|-------------------------------9~----------------------------------|
|----------9-10-9----------9-10----------9-10-9----------10-9-------|
|--7777777---------6666666--------5555555---------4444444-----------|

|-------------------------------------------------------------------|
|-------------------------------------------------------------------|
|-------------------------------------------------------------------|
|-------------------------------------------------------------------| x2
|----9h10---9h10---9h10---9h10------9h10---9h10---9h10---9h10-------|
|--7------6------5------4---------7------6------5------4------------|

|-------------------------------------------------------------------|
|-------------------------------------------------------------------|
|-------------------------------------------------------------------|
|----"-""-"----------------"-""-"-----------------------------------| x 2
|----9-10-9----------------9-10-9-----------------------------------|
|--7--------88888888888--7--------88888-999999-88888-999999---------|

|-------------------------------------------------------------------|
|-------------------------------------------------------------------|
|-------------------------------------------------------------------|
|----"-"-"----------------"-"-"-------------------------------------| x 2
|----7-8-7----------------7-8-7-------------------------------------|
|--5--------6666666666--5--------66666-888888-66666-888888----------|

|-------------------------------------------------------------------|
|-------------------------------------------------------------------|
|-------------------------------------------------------------------|
|----"-""-"----------------"-""-"-----------------------------------| x 2
|----9-10-9----------------9-10-9-----------------------------------|
|--7--------88888888888--7--------88888-999999-88888-999999---------|

|-------------------------------------------------------------------|
|-------------------------------------------------------------------|
|-------------------------------------------------------------------|
|----"-"-"----------------"-"-"-------------------------------------| x 2
|----7-8-7----------------7-8-7-------------------------------------|
|--5--------6666666666--5--------66666-888888-66666-888888----------|

|-------------------------------------------------------------------|
|-------------------------------------------------------------------|
|-------------------------------------------------------------------|
|-----------------------------------9h10---9h10---9h10---9h10-------| x4
|----9h10---9h10---9h10---9h10----7------6------5------4------------|
|--7------6------5------4-------------------------------------------|


|----------------------|
|----------------------|
|----------------------|
|----------------------|
|--7---4---------------|
|--5---2---------------|

|-------------------------------------------------------------------|
|-------------------------------------------------------------------|
|-------------------------------------------------------------------|
|-------------------------------------------------------------------| x4
|--"--"-""-"-"---"----"-""-"--"---""-"-"--"--"--"-------------------|
|--7--9-10-9-7---3----9-10-9--2---10-9-7--0--10-9-------------------|

|-------------------------------------------------------------------|
|-------------------------------------------------------------------|
|-------------------------------------------------------------------|
|------------------------------------------------------12-11--------|
|-----9-9-9-10-9------9-10-9-----9-10-9----10-9--4-----10--9--------|
|--7--------------6~----------5~---------4-------2------------------|

|-------------------------------------------------------------------|
|-------------------------------------------------------------------|
|-------------------------------------------------------------------| x4
|--"--"-""-"-"---"----"-""-"--"---""-"-"--"--12-11------------------|
|--7--9-10-9-7---3----9-10-9--2---10-9-7--0--10--9------------------|
|-------------------------------------------------------------------|

|-------------------------------------------------------------------|
|-------------------------------------------------------------------|
|-------------------------------------------------------------------|
|-------------------------------------------------------------------| x6
|-6-6-9h10p9-7-7-9h10p9-8-8-9h10p9-9-9-9h109------------------------|
|-4-4--------5-5--------6-6--------7-7------------------------------|
  . .        . .        . .        . .

|---------------|
|---------------|
|---------------|
|---------------|
|-4-------------|
|-2-------------|


Well.... I'm not sure if this is 100% correct, but it sound good.
If i've done any mistakes, please send a message to my email.....
Or post it in the forum thingy.....

  Visit MetalTabs.com for more metal tablature

bottom separator

Contact Us | Privacy Policy | Disclaimer | Legal Notice
Copyright © 2001-2014 MetalTabs.com. All Rights Reserved.