#----------------------------------PLEASE NOTE---------------------------------#
#This file is the author's own work and represents their interpretation of the #
#song. You may only use this file for private study, scholarship, or research. #
#Unless specified otherwise, this is NOT an official tab from the band members.#
#------------------------------------------------------------------------------#

  Visit MetalTabs.com for more metal tablature
  
Band:  Cattle Decapitation
Album: Human jerky
Song:  Mad Cow Conspiracy (Bloated Bovine-Home to Flies and Anthrax Spores)

Copyright   ThreeOneG 1999
Version 1.0

Transcribed By: Funeral Procession
Email:          Funeral_Procession666@yahoo.com


.  - palm mute           /  - slide up to
\  - slide down to       ~  - vibrato
h  - hammer on           b  - Bend
p  - pull off            Suffixes for bend
t  - tap                 fb  - full bend    hb - half bend
ph - pinched harmonic    qb  - quarter bend tb - tap bend
*  - see comment         ^  - Hold bend    r release bend
x  - Stuccatto           ~  - vibrato bend
,  - slight palm mute    () - ghost note, sustained note
"  - tremolo note        <> - Trill

Tunning E A D G B E

|-8-8-8-8-8-8-8/9--8-8-8-8-8-8-8--8-8-8-8-8-8-8/9--8-8-8-8-8-8-8----|
|-6-6-6-6-6-6-6/7--6-6-6-6-6-6-6--6-6-6-6-6-6-6/7--6-6-6-6-6-6-6----|
|-------------------------------------------------------------------|
|-------------------------------------------------------------------|
|-------------------------------------------------------------------|
|-------------------------------------------------------------------|

Fattened for Slaughter......
|---------------------------------------------------------------|
|---------------------------------------------------------------|
|---------------------------------------------------------------|
|--------------7--------------7--------------7--------------7---|
|--7\6---7\6---5--7/6---7/6---5--7/6---7/6---5--7/6---7/6---5---| x2
|--5\4-0-5\4-0----5/4-0-5/4-0----5/4-0-5/4-0----5/4-0-5/4-0-----|

|--------------------------------------------------------------|
|--------------------------------------------------------------|
|--------------------------------------------------------------|
|--------------------------------------------------------------|
|-2-2-2-2-2-2-2-2-2-2-2-2-2-2-2--6-5-7-6-5-6-5--3-3-3-3-3--2---|
|-0-0-0-0-0-0-0-0-0-0-0-0-0-0-0--4-3-5-4-3-4-3--1-1-1-1-1--0---|

YYYEEAAHHH!!!!!!
I tried my best but it sounds correct to me.
send corrections is you have any!  Rate!

  Visit MetalTabs.com for more metal tablature