#----------------------------------PLEASE NOTE---------------------------------#
#This file is the author's own work and represents their interpretation of the #
#song. You may only use this file for private study, scholarship, or research. #
#Unless specified otherwise, this is NOT an official tab from the band members.#
#------------------------------------------------------------------------------#

  Visit MetalTabs.com for more metal tablature
  
Band:  Cattle Decapitation
Album: Homovore
Song:  Icepick Gag Reflex

Copyright   ThreeOneG records 2000
Version 1.0

Transcribed By: Funeral Procession
Email:          Funeral_Procession666@yahoo.com


Tunning E A D G B E

|-------------------------------------------------------------------|
|-------------------------------------------------------------------|
|-----------------------------------------------------2ph-----2ph---|
|-------------------------------------------------------------------|
|-2-2-5-2-7-2-5-2-2-2-5-2-7-2-5-2-2-2-5-2-7-2-5-2-2-2-----2-2-------|
|-0-0-3-0-5-0-3-0-0-0-3-0-5-0-3-0-0-0-3-0-5-0-3-0-0-0-----0-0-------|
 ....................................................     ...

|-------------------------------------------------------------------|
|-------------------------------------------------------------------|
|-------------------------------------------------------------------|
|-------------------------------------------------------------------|
|-2-2-5-2-7-2-5-2-2-2-5-2-7-2-5-2-2-2-5-2-7-2-5-2-2-2-----2-2-------|
|-0-0-3-0-5-0-3-0-0-0-3-0-5-0-3-0-0-0-3-0-5-0-3-0-0-0-----0-0-------|
 ....................................................     ...

|-------------------------------------------------------------------|
|-------------------------------------------------------------------|
|-------------------------------------------------------------------|
|-------------------------------------------------------------------|
|-22-44-22-44-22-44-22-44-22-44-22-44-22-44-22-44-22-44-22-44-22-44-|
|-00-22-00-22-00-22-00-22-00-22-00-22-00-22-00-22-00-22-00-22-00-22-|

               (repeat after bar line)
|-------------|---------------------------------------------------|
|-------------|---------------------------------------------------|
|-------------|---------------------------------------------------|
|-------------|---------------------------------------------------|
|-2-2----2-2--|-0-2-3-0-1-2-0-1-0-2-3-0-1-2-0-1-0-2-3-0-1-2-0-1---| x2
|-0-0----0-0--|---------------------------------------------------|
  ...    ...

|-------|
|-------|
|-------|
|-------|
|---2---|
|---0---|

Well...thats the song so yep....enjoy it!   Rate!
Fuckin Cattle Decapitation man! \m/

  Visit MetalTabs.com for more metal tablature