top separator

Home

Forum

What's New

Submit a Tab

FAQ

Links

Contact Us

Link to Us

MuSpy.com

MetalTabs.com logo

Bands

0-9

A

B

C

D

E

F

G

H

I

J

K

L

M

N

O

P

Q

R

S

T

U

V

W

X

Y

Z

Search

What

Where
 

Haji's Kitchen - "Free" Guitar Tab

Plain Text Version
More Haji's Kitchen Tabs

Hits: 2882
Updated: 2004-11-20 17:25:37

 

By:

sendpm.gif

email.gif

Important note
This tab is available online because we obtained explicit permission from Haji's Kitchen or their label.


#----------------------------------PLEASE NOTE---------------------------------#
#This file is the author's own work and represents their interpretation of the #
#song. You may only use this file for private study, scholarship, or research. #
#Unless specified otherwise, this is NOT an official tab from the band members.#
#------------------------------------------------------------------------------#

  Visit MetalTabs.com for more metal tablature
  
Song: "Free"
Artist: Haji's Kitchen
Album: Haji's Kitchen

Tabbed by: Chris Gumb
email: cgumb@berklee.net
AIM: Tornado O Souls

Note: This is my first time transcribing a song but I think I managed to get all
the Rhythm parts correct. The solo on the other hand... What I did get off the
solo is probobly 90% correct, an it all "sounds right" but that last section
where he just rapes his guitar is beyond my ability to figure out. Is it just
a minor 4 note per string legato thingy that ends up with some tapping thrown
in at the end? I spent a long time figuring all this out, but I really would
like to know what he's doing on the last part of the solo, if anyone out there
sees anything wrong with what I have or  can help me with the last part of the
solo please drop me an email or IM me. I want to eventually tab out this entire
album!

Playing: A lot of wide vibrato parts and slight bends in the Rhythm section,
listen to  the song to get a feel for these parts. You can get the whole song
from the Haji's Kitchen website! http://www.hajiskitchen.com/audio/free.mp3



Tuning: BEADGBE

 Intro and Chorus Riff
|---------------------------------------------------------------------|
|---------------------------------------------------------------------|
|---------------------------------------------------------------------|
|------0--------------------------------0-----------------------------|
|-----------------0--------------------------------0------------------|
|----8---8-----4-----4---4-------/8---8---8-----4-----4---4-----------|
|--6-------/3----------3------------6-------/3----------3-------X-3v--|

|----------------------------------------------------------------------|
|----------------------------------------------------------------------|
|----------------------------------------------------------------------|
|------0-------------------------------0-------------------------------|
|-----------------0-------------------------------0--------------------|
|----8---8-----4-----4---4------/8---8---8-----4-----4---4-------------|
|--6-------/3----------3-----------6-------/3----------3----------15/--|

 Verse Riff
|---------------------------------------------------||
|---------------------------------------------------||
|--------------------------------------------------o||
|---------------------------------------------------||7x
|--------------------------------------------------o||
|--1-----------4b-----------1-------1---------------||
|----3v--X-X-X----0--1---3b---X-X-X----3--1--0-1-3--||

|--------------------------------------------------|
|--------------------------------------------------|
|--------------------------------------------------| play on the
|--------------------------------------------------| 8th time
|--------------------------------------------------| if going into Pre Chorus
|--1-----------4b-----------1-------1--------------| if not just play the
|----3v--X-X-X----0--1---3b---X-X-X----3--1--0-3^0-| original the 8th time


 Pre Chorus Riff
|-------------------------------------------------------------------|
|-------------------------------------------------------------------|
|-------------------------------------------------------------------|
|-------------------------------------------------------------------|
|-------------------------------------------------------------------|
|--------5-------5-------5-------5-------7-------7-------7-------7--|
|--3-3-3---3-3-3---3-3-3---3-3-3---6-6-6---6-6-6---6-6-6---6-6-6----|
   . . .   . . .   . . .   . . .   . . .   . . .   . . .   . . .
|-------------------------------------------------------------------|
|-------------------------------------------------------------------|
|-------------------------------------------------------------------|
|-------------------------------------------------------------------|
|-------------------------------------------------------------------|
|--------6-------6-------6-------6-------6-------6-------6-------6--|
|--4-4-4---4-4-4---4-4-4---4-4-4---5-5-5---5-5-5---5-5-5---5-5-5----|
   . . .   . . .   . . .   . . .   . . .   . . .   . . .   . . .
 Solo Riff
|-----------------------------------------------------------|
|-----------------------------------------------------------|
|-----------------------------------------------------------|
|-----------------------------------------------------------|
|-----------------------------------------------------------|
|--3h4-----------3h4-----3h4----3h4----------3h4-----3h4----|
|------6b--4-4-4-----5b------4------4--4-4-4-----5b------4--|
           . . .                       . . .

 Solo! (2:33)
|------------------10h13p10----------------------------|
|9v----------10-13--------------14---------15b-15-15b--|
|10v------10----12----------12b----12b-12r-------------|
|----9/12----------------------------------------------|
|------------------------------------------------------|
|------------------------------------------------------|
|------------------------------------------------------|
 (2:41)
|-------------------------------------------------------------|
|--12h13p12p10-------13---------------------------------------|
|--------------10h11-------------14/16------------------------|
|-----------------------12-10/12-------14/15------------------|
|--------------------------------------------17\15/17\15\12/--|
|-------------------------------------------------------------|
|-------------------------------------------------------------|
 (2:44)
|-------------------------7h8------------10-8---8------------13----------------|
|-----------------7-------7-------------------6--------13-------------13h16p13-|
|-------------------5/7\5------6/7-10-7-----------7/10----10----10/12----------|
|-3p0---5---6---7--------------------------------------------------------------|
|-----3---3---3----------------------------------------------------------------|
|------------------------------------------------------------------------------|
|------------------------------------------------------------------------------|
      . . . . . .
 (2:48-3:00)
|------------------------------?---------?--?----?--------|
|---------------------------------?-------?----?---?------|
|----I-Have-No-Freakin-Clue!--?---------?----?------?-----|
|------------------------?---------?-------?----?---------|
|-------?-------?----------------?-----?------------------|
|-----?---------------?---------?-----?-------?-----------|
|------------?----------?-----------?-------------?-------|

 Lead over last Chorus
|-----------------------------------------------------------|
|-----------------------------------------------------------|
|--5/7-7-7-X-X-5/7-7-7-X-X-5/7-7-7-5/7-7-7-X-X-5/7-7-7-10v--|
|-----------------------------------------------------------| 2X
|-----------------------------------------------------------|
|-----------------------------------------------------------|
|-----------------------------------------------------------|

|-----------------------------------------------------------|
|--6-8-8-8-X-X-6-8-8-8-X-X-6-8-8-8-6-8-8-8-X-X-6-8-8-8-8----|
|--5/7-7-7-X-X-5/7-7-7-X-X-5/7-7-7-5/7-7-7-X-X-5/7-7-7-10v--|
|-----------------------------------------------------------| 2X
|-----------------------------------------------------------|
|-----------------------------------------------------------|
|-----------------------------------------------------------|

Final Chord
|-----|
|-----|
|-----|
|-----|
|--5--|
|--5--|
|--3--|

  Visit MetalTabs.com for more metal tablature

bottom separator

Contact Us | Privacy Policy | Disclaimer | Legal Notice
Copyright © 2001-2014 MetalTabs.com. All Rights Reserved.