top separator

Home

Forum

FAQ

Contact Us

Link to Us

MetalTabs.com logo

Bands

0-9

A

B

C

D

E

F

G

H

I

J

K

L

M

N

O

P

Q

R

S

T

U

V

W

X

Y

Z

Gorgoroth - "Funeral Procession" Bass Tab

Plain Text Version
More Gorgoroth Tabs

Hits: 3885
Rated: 5.00 out of 5 (2 votes)
Updated: 2004-11-20 17:24:28

By:

Funeral Procession


#----------------------------------PLEASE NOTE---------------------------------#
#This file is the author's own work and represents their interpretation of the #
#song. You may only use this file for private study, scholarship, or research. #
#Unless specified otherwise, this is NOT an official tab from the band members.#
#------------------------------------------------------------------------------#

  Visit MetalTabs.com for more metal tablature
  
Band:  Gorgoroth
Album: Under the Sign of hell
Song:  Funeral procession

Copyright    Malicious 1997
Version 1.0 - ???

Transcribed By: Funeral Procession
Email:          Funeral_Procession666@yahoo.com


/  - slide up to         \  - slide down to
~  - vibrato             b  - Bend
h  - hammer on           p  - pull off
f  - full bend           h - half bend
q  - quarter bend        ~  - vibrato bend
*  - see comment         ^  - Hold bend    r release bend
"  - tremolo note


Standard Tuning

G|---------------------------------------------------------------|
D|---------------------------------------------------------------|
A|---------555555555555555555555555-121212121212-131313-101010---|
E|-0////10-------------------------------------------------------|

G|-----------------------------------------------------------------------------|
D|-----------------------------------------------------------------------------|
A|121212121212121212121212\\\7-555555555555555555555555121212121212131313101010|
E|-----------------------------------------------------------------------------|

G|-----------------------------------------------------------------------------|
D|-----------------------------------------------------------------------------|
A|121212121212121212121212\\\7-555555555555555555555555121212121212131313101010|
E|-----------------------------------------------------------------------------|

G|-----------------------------------------------------------------------------|
D|-----------------------------------------------------------------------------|
A|121212121212121212121212\\\7-555555555555555555555555121212121212131313101010|
E|-----------------------------------------------------------------------------|

G|----------------------------|
D|----------------------------|
A|-121212121212-1010-888-77---|
E|----------------------------|

G|-7-----7-10-9-7-6-7----------------------------------------------------|
D|----------------------------587587587587-------------------------------|
A|---------------------8---8---------------5---5---5-5-5-5---------------|x2
E|----------------------------------------------------------6--6--6-6-8-8|

G|-----------------------------------------------------------------------|
D|-----------------------------------------------------------------------|
A|55555555555555555555555512121212121213131313131312121212121212121212\7-|x3
E|-----------------------------------------------------------------------|

G|----------------------------------------------------------------------------|
D|----------------------------------------------------------------------------|
A|555555555555555555555555121212121212131313131313121212121212121212121212\\\5|
E|----------------------------------------------------------------------------|

G|-------------------------------------------------------------------|
D|-------------------------------------------------------------------|
A|----------------------------------44444555555555555----------------|x4
E|-333333333333-111111111111-000000----------------------------------|

G|-------------------------------------------------------------------|
D|-------------------------------------------------------------------|
A|-1010101010101010-888888-777777-55555-44---------------------------|x7
E|-------------------------------------------------------------------|

G|---------------------------------------|
D|---------------------------------------|
A|-1010-88-77-88-1010-88-77-55-33-5------|
E|---------------------------------------|

Yep im pretty sure this tab is good because i listened to it
while playing it.Email me if you want to send any corrections...RATE!

  Visit MetalTabs.com for more metal tablature

bottom separator

Contact Us | Privacy Policy | Disclaimer
Copyright © 2001-2014 MetalTabs.com. All Rights Reserved.