top separator

Home

Forum

FAQ

Contact Us

Link to Us

MetalTabs.com logo

Bands

0-9

A

B

C

D

E

F

G

H

I

J

K

L

M

N

O

P

Q

R

S

T

U

V

W

X

Y

Z

Cradle of Filth - "Nymphetamine (Fix)" Guitar Tab

Plain Text Version
More Cradle of Filth Tabs

Hits: 16427
Rated: 4.26 out of 5 (19 votes)
Updated: 2004-11-20 17:24:15

By:


#----------------------------------PLEASE NOTE---------------------------------#
#This file is the author's own work and represents their interpretation of the #
#song. You may only use this file for private study, scholarship, or research. #
#Unless specified otherwise, this is NOT an official tab from the band members.#
#------------------------------------------------------------------------------#

  Visit MetalTabs.com for more metal tablature
  
Band:  Cradle Of Filth
Album: Nymphetamine
Song:  Nymphetamine (Fix)

Copyright (c)  Roadrunner Records 2004

Transcribed By: Landers (TheLanders0422@aol.com)

Standard 7 string tuning
B E A D G b e
(for 6 string guitars, just ignore
the 7th(B) sting)

Intro/Chorus #1 (Both Guitars)
e----------------------------------
b----------------------------------
G----------------------------------
D------------------6---3-----------
A--3---3---6---6---6---3---3---3---
E--3---3---6---6---4---1---3---3---
B--1---1---4---4-----------1---1---
(Guitar 1 plays 6 times, Guitar 2 plays 4)

Solo #1 (Guitar 2)
e---------------------------------------------------------------
b---------------------------------------------------------------
G-12-10-12----12-10-12-10-12----12-10-12----12-10-12-10-12------
D----------10----------------10---------------------------------
A----------------------------------------13----------------13---
E---------------------------------------------------------------
B---------------------------------------------------------------
continue:
e---------------------------------------------------------------------
b---------------------------------------------------------------------
G-12-10-12----12-10-12-10-12----12-10-12----12-10-12-10-12-13-12-10---
D---------------------------------------------------------------------
A----------11----------------11----------10---------------------------
E---------------------------------------------------------------------
B---------------------------------------------------------------------
(Play twice, start when Daniís voice comes in)

Chorus #2 (Both Guitars)
e------------------------------------------------------------
b------------------------------------------------------------
G------------------------------------------------------------
D--555555-333333-555555--------555555-333333--------333333---
A--555555-333333-555555-666666-555555-333333-666666-333333---
E--333333-111111-333333-666666-333333-111111-666666-111111---
B-----------------------444444---------------444444----------
(Palm muted, Play twice)

Solo #2 (Both Guitars)
e-------------------------------------------------------------------------
b---------------------------------------------8--9--8--9-8-9-6--4--6--8---
G--3--5-5---7--8--7-8-7-5--8--10--8--10--8--7-----------------------------
D-------------------------------------------------------------------------
A-------------------------------------------------------------------------
E-------------------------------------------------------------------------
B-------------------------------------------------------------------------
(Guitar 1 plays twice, Guitar 2 moves on)

Guitar 2
e-----------------------------------------------------------------------
b---------8--9--8-9-8---9--11--9-11-9-8--11--13--11-13-11-13--4--6--8---
G--3--5-5-------------8-------------------------------------------------
D-----------------------------------------------------------------------
A-----------------------------------------------------------------------
E-----------------------------------------------------------------------
B-----------------------------------------------------------------------

Pre Break (Both Guitars)
e---------
b---------
G--8--8---
D--8--8---
A--6--6---
E---------
B---------

Break (Both Guitars)
e----------------------------------------------------------------------
b----------------------------------------------------------------------
G----------------------------------------------------------------------
D----------------------------------------------------------------------
A--5---4---1---2---5---4---1---2----5---4---1---2---5---4---1---2--3---
E--5---4---1---2---5---4---1---2----5---4---1---2---5---4---1---2--3---
B--3---2-------0---3---2-------0----3---2-------0---3---2-------0--1---

Pre Solo #3 (Guitar 2)
e------------------------------
b------------------------------
G--12--10--12--13--12--10--8---
D------------------------------
A------------------------------
E------------------------------
B------------------------------

Chorus #3 (Guitar 1)
e----------------------------------
b----------------------------------
G----------------------------------
D------------------6---3-----------
A--3---3---6---6---6---3---3---3---
E--3---3---6---6---4---1---3---3---
B--1---1---4---4-----------1---1---
(Play twice)

Solo #3 (Guitar 2)
e---------------------------------------------------------------
b---------------------------------------------------------------
G-12-10-12----12-10-12-10-12----12-10-12----12-10-12-10-12------
D----------10----------------10---------------------------------
A----------------------------------------13----------------13---
E---------------------------------------------------------------
B---------------------------------------------------------------
continue:
e---------------------------------------------------------------------
b---------------------------------------------------------------------
G-12-10-12----12-10-12-10-12----12-10-12----12-10-12-10-12-13-12-10---
D---------------------------------------------------------------------
A----------11----------------11----------10---------------------------
E---------------------------------------------------------------------
B---------------------------------------------------------------------
(Plays with Chorus)

Chorus #4 (Both Guitars)
e------------------------------------------------------------
b------------------------------------------------------------
G------------------------------------------------------------
D--555555-333333-555555--------555555-333333--------333333---
A--555555-333333-555555-666666-555555-333333-666666-333333---
E--333333-111111-333333-666666-333333-111111-666666-111111---
B-----------------------444444---------------444444----------
(Palm muted, Play twice)

Solo #4 (Both Guitars)
e-------------------------------------------------------------------------
b---------------------------------------------8--9--8--9-8-9-6--4--6--8---
G--3--5-5---7--8--7-8-7-5--8--10--8--10--8--7-----------------------------
D-------------------------------------------------------------------------
A-------------------------------------------------------------------------
E-------------------------------------------------------------------------
B-------------------------------------------------------------------------
(Guitar 1 plays 4 times, Guitar 2 plays twice then moves on)

Guitar 2
e-----------------------------------------------------------------------
b---------8--9--8-9-8---9--11--9-11-9-8--11--13--11-13-11-13--4--6--8---
G--3--5-5-------------8-------------------------------------------------
D-----------------------------------------------------------------------
A-----------------------------------------------------------------------
E-----------------------------------------------------------------------
B-----------------------------------------------------------------------
(Guitar 2 plays twice)

Pre Break (Both Guitars)
e---------
b---------
G--8--8---
D--8--8---
A--6--6---
E---------
B---------

Break (Both Guitars)
e----------------------------------------------------------------------
b----------------------------------------------------------------------
G----------------------------------------------------------------------
D----------------------------------------------------------------------
A--5---4---1---2---5---4---1---2----5---4---1---2---5---4---1---2--3---
E--5---4---1---2---5---4---1---2----5---4---1---2---5---4---1---2--3---
B--3---2-------0---3---2-------0----3---2-------0---3---2-------0--1---

If you have any questions or corrections, please feel free to e-mail me.
Enjoy

  Visit MetalTabs.com for more metal tablature

bottom separator

Contact Us | Privacy Policy | Disclaimer
Copyright © 2001-2014 MetalTabs.com. All Rights Reserved.