top separator

Home

Forum

What's New

Submit a Tab

FAQ

Links

Contact Us

Link to Us

MuSpy.com

MetalTabs.com logo

Bands

0-9

A

B

C

D

E

F

G

H

I

J

K

L

M

N

O

P

Q

R

S

T

U

V

W

X

Y

Z

Search

What

Where
 

Cattle Decapitation - "I Eat Your Skin" Guitar Tab

Plain Text Version
More Cattle Decapitation Tabs

Hits: 5818
Rated: 5.00 out of 5 (2 votes)
Updated: 2004-11-20 17:19:47

 

By:

GuitaristAt13

sendpm.gif

email.gif

Important note
This tab is available online because we obtained explicit permission from Cattle Decapitation or their label.


#----------------------------------PLEASE NOTE---------------------------------#
#This file is the author's own work and represents their interpretation of the #
#song. You may only use this file for private study, scholarship, or research. #
#Unless specified otherwise, this is NOT an official tab from the band members.#
#------------------------------------------------------------------------------#

  Visit MetalTabs.com for more metal tablature
  
Band: Cattle Decapitation
Album: To Serve Man
Song: I Eat Your Skin

Copyright (c)  (Metal Blade) (2002)
Version 1.0 - I Dont know

Transcribed By: Guitarist At 13
Email: Testicle_Laceration@yahoo.com


.  - palm mute           /  - slide up to
\  - slide down to       ~  - vibrato
h  - hammer on           b  - Bend
p  - pull off            Suffixes for bend
t  - tap                 f  - full bend    h - half bend
ph - pinched harmonic    q  - quarter bend t - tap bend
*  - see comment         ^  - Hold bend    r release bend
x  - Stuccatto           ~  - vibrato bend
,  - slight palm mute    () - ghost note, sustained note
"  - tremolo note        <> - Trill

Tunning Eb ( 1/2 Step Down )

Riff 1
|-------------------------------------------------------------------|
|-------------------------------------------------------------------|
|-------------------------------------------------------------------|
|-------------------------------------------------------------------|  x2
|-------------------------------------------------------------------|
|-0000-1111-4444-3333333333-----0000-1111-4444-3333333333-----------|

Riff 2
|-------------------------------------------------------------------|
|-------------------------------------------------------------------|
|-------------------------------------------------------------------|
|-------------------------------------------------------------------| X2
|-2-3-6-5-( let ring )-2-3-6-5-( let ring )-------------------------|
|-0-1-4-3--------------0-1-4-3--------------------------------------|

Riff 1
|-------------------------------------------------------------------|
|-------------------------------------------------------------------|
|-------------------------------------------------------------------|
|-------------------------------------------------------------------| x4
|-------------( play a little faster )------------------------------|
|-0000-1111-4444-3333--0000-1111-4444-3333--------------------------|

Riff 3
|-------------------------------------------------------------------|
|-------------------------------------------------------------------|
|-------------------------------------------------------------------|
|------------------------------2222222233333333-1-( whammy )-or-----| x2
|---------------------------------------------------------------6(w)|
|-0-0-0-0-0--0-0-0-0-0--0-0-0---------------------------------------|


|-------------------------------------------------------------------|
|-------------------------------------------------------------------|
|-------------------------------------------------------------------|
|-------------------------------------------------------------------|
|-------------------------------------------------------------------|
|-0-0-0-0-0--0-0-0-0-0--0-0-0---0-0-0-0-0--0-0-0-0-0--10/////////---|

Riff 4
|----------------------------------------------------(-ph-ph-)------|
|----------------------(-ph-ph-)----------------------4-5-3-4-------|
|-----------------------2-3-1-2-----------------------2-3-1-2-------|
|----------2~~-----------------------------2~~----------------------|
|-2-2-2-2------2-2-2-2------------2-2-2-2------2-2-2-2--------------|
|-0-0-0-0------0-0-0-0------------0-0-0-0------0-0-0-0--------------|
  . . . .      . . . .            . . . .      . . . .
Riff 1 ( play a little faster ) x4
Riff 2 x2
Riff 1 x2
Riff 2 x2
Riff 1 x2

Riff 5
|-------------------------------------------------------------------|
|-------------------------------------------------------------------|
|-------------------------------------------------------------------|
|---------5-----------------------5---------------------5-----------|
|---------------3---2-3----------------3--2-3----------------3---2-3|
|-3-3-3-3---3-3---3------3-3-3-3---3-3--3------3-3-3-3---3-3---3----|

Riff6
|--------------------------|
|--------------------------|
|--------------------------|
|--------------------------|
|-4-4-3-3-6-6-5-5----------|
|-2-2-1-1-4-4-3-3----------|
  . . . . . . . .

Riff 5 x1

Riff 7
|-------------------------------------------------|
|-------------------------------------------------|
|-------------------------------------------------|
|-------------------------------------------------|
|-8-8-7-71010-9-9----4-4-3-3-6-6-5-5--------------|
|-6-6-5-5-8-8-7-7----2-2-1-1-4-4-3-3--------------|
  . . . . . . . .    . . . . . . . .

Then do the riffs over again and so and so........

Riff 7 ( tremolo picking )

End on this
|---------------------|
|---------------------|
|---------------------|
|---------------------|
|--2------------------|
|--0------------------|

This song is a kick ass song. So, go enjoy!!!!!!!!
Take it easy on me if some parts are wrong, i'm only 13.....
Cattle Decapitation fuckin rules!!!

  Visit MetalTabs.com for more metal tablature

bottom separator

Contact Us | Privacy Policy | Disclaimer | Legal Notice
Copyright © 2001-2014 MetalTabs.com. All Rights Reserved.