top separator

Home

Forum

What's New

Submit a Tab

FAQ

Links

Contact Us

Link to Us

MetalTabs.com logo

Bands

0-9

A

B

C

D

E

F

G

H

I

J

K

L

M

N

O

P

Q

R

S

T

U

V

W

X

Y

Z

Search

What

Where
 

Darkthrone - "As Flittermice as Satans Spys" Guitar Tab

Plain Text Version
More Darkthrone Tabs

Hits: 6207
Rated: 3.33 out of 5 (3 votes)
Updated: 2004-12-09 08:46:10

 

By:

sendpm.gif

email.gif

Important note
This tab is available online because we obtained explicit permission from Darkthrone or their label.


#----------------------------------PLEASE NOTE---------------------------------#
#This file is the author's own work and represents their interpretation of the #
#song. You may only use this file for private study, scholarship, or research. #
#Unless specified otherwise, this is NOT an official tab from the band members.#
#------------------------------------------------------------------------------#

  Visit MetalTabs.com for more metal tablature
  
Tab Author: Dark_Throne
Type of the tab: G
Band: Dark Throne
Album: Transilvanian Hunger
Song: As Flittermice as Satans Spys
e-mail: Psycho_dB@gmx.de

e |----------------|
H |----------------|
G |----------------|
D |-------8----8---| x36
A |-----9----9---9-|
E |--10------------|


e |----------|
H |----------|
G |----------|
D |----------| 4x
A |-13-10-16-|
E |-11--8-14-|


e |----------|
H |----------|
G |----------|
D |----------| 4x
A |-10--9-13-|
E |-12-11-15-|


e |----------|
H |----------|
G |----------|
D |----------| 4x
A |-13-10-16-|
E |-11--8-14-|


e |----------|
H |----------|
G |----------|
D |----------| 4x
A |-10--9-13-|
E |-12-11-15-|


e |----------|
H |----------|
G |----------|
D |----------| 4x
A |-13-10-16-|
E |-11--8-14-|


e |----------------|
H |----------------|
G |----------------|
D |-------8----8---| x36
A |-----9----9---9-|
E |--10------------|

the end...

This is the first update. I think there will follow some more next time!

  Visit MetalTabs.com for more metal tablature

bottom separator

Contact Us | Privacy Policy | Disclaimer | Legal Notice
Copyright © 2001-2014 MetalTabs.com. All Rights Reserved.