top separator

Home

Forum

FAQ

Contact Us

Link to Us

MetalTabs.com logo

Bands

0-9

A

B

C

D

E

F

G

H

I

J

K

L

M

N

O

P

Q

R

S

T

U

V

W

X

Y

Z

Dissection - "Elisabeth Bathori (Tormentor cover)" Bass Tab

Plain Text Version
More Dissection Tabs

Hits: 3207
Updated: 2004-11-20 17:18:10

By:

misantropic666


#----------------------------------PLEASE NOTE---------------------------------#
#This file is the author's own work and represents their interpretation of the #
#song. You may only use this file for private study, scholarship, or research. #
#Unless specified otherwise, this is NOT an official tab from the band members.#
#------------------------------------------------------------------------------#

  Visit MetalTabs.com for more metal tablature
  
Band:  Dissection
Album: Where dead angels lie
Song:  Elisabeth Bathori

Copyright (c)   Nuclear blast, 1996
Version 1.0    10 November 2004

Transcribed By: Luuk Steemers
E-mail:         Misantropic666@hotmail.com
--------------------------------------------
Note: This is my first tab, I think its pretty ok, enjoy!

G --------------------------------|--------------|
D --------------------------------|--------------|
A -7--7\5/7----7\5/7--7-----------|--3-3-5-5-----|
E --------------------------------|--------------|      Riff A

G ---------------------------|-------------------|
D ---------------------------|-------------------|
A -7-7-0-5-5-0-7-7-3-3-------|-7-7-0-5-5-0-------|
E ---------------------------|-------------3~----|      Riff B

G --------------|
D --------------|
A -7\5/7~-------|
E --------------|               Riff C

G ------------------|
D ------------------|
A -7\5/7~---(7)\1---|
E ------------------|   Bridge

G ---------------------------|
D ---------------------------|
A ------2~-------------------|
E -0----------3~---------3\2-|  Riff D

G -----------------------------|-----------------------|
D -----------------------------|-----------------------|
A -7/8\5----7/8\7/8\7*---------|-7/8\5----7/8\7/8\7*---|
E -----------------------------|-----------------------|

G -------------------------------|--------------------------------|
D -------------------------------|--------------------------------|
A -12/13\10----12/13\12/13\12*---|-12/13\10---12/13\12/13\12*-----|
E -------------------------------|--------------------------------|  Riff E

*play very fast

G --------------|
D---------------|
A-12/13\10------|
E---------------|       Riff F

G -----------|
D -----------|
A -7-7-------|
E -------0~--|          Outro


Song structure:

Riff A  6x (0:26)
Riff B  2x (0:56)
Riff A  4x (1:11)
Riff B  2x (1:31)
Riff C  2x (1:51)
Bridge  1x (1:59)
Riff D  12x (2:04)
Riff A  6x (2:50)
Riff B  2x (3:14)
Riff E  2x (3:32)
Riff F  8x (3:55)
Riff A  4x (4:19)
Riff B  2x (4:38)
Outro   1x (4:57)

  Visit MetalTabs.com for more metal tablature

bottom separator

Contact Us | Privacy Policy | Disclaimer
Copyright © 2001-2014 MetalTabs.com. All Rights Reserved.