top separator

Home

Forum

FAQ

Contact Us

Link to Us

MetalTabs.com logo

Bands

0-9

A

B

C

D

E

F

G

H

I

J

K

L

M

N

O

P

Q

R

S

T

U

V

W

X

Y

Z

Cannibal Corpse - "Blood Drenched Execution" Guitar Tab

Plain Text Version
More Cannibal Corpse Tabs

Hits: 4581
Rated: 4.80 out of 5 (5 votes)
Updated: 2004-11-08 18:13:53

By:

hot spicy


#----------------------------------PLEASE NOTE---------------------------------#
#This file is the author's own work and represents their interpretation of the #
#song. You may only use this file for private study, scholarship, or research. #
#Unless specified otherwise, this is NOT an official tab from the band members.#
#------------------------------------------------------------------------------#

  Visit MetalTabs.com for more metal tablature
  
Band:  Cannibal Corpse
Album: Gallery Of Suicide
Song:  Blood Drenched Execution

Copyright (c) Metal Blade 1998
Version 1.0  08.11.2004

Transcribed By: Hot Spicy
Email:(bands) : unchallengedhate.de / japanische-kampfhoerspiele.de
      (privat): robert.n74@web.de

.  - palm mute           /  - slide up to
\  - slide down to       ~  - vibrato
h  - hammer on           b  - Bend
p  - pull off            Suffixes for bend
t  - tap                 f  - full bend    h - half bend
ph - pinched harmonic    q  - quarter bend t - tap bend
*  - see comment         ^  - Hold bend    r release bend
x  - Stuccatto           ~  - vibrato bend
,  - slight palm mute    () - ghost note, sustained note
"  - tremolo note        <> - Trill

Tuning 6 half steps down: Bb-Eb-Ab-Db-F-Bb

Left  Channel=guitar one
Right Channel=guitar two

guitar one            2 times
|-riff-A---------------------------------------------|
|----------------------------------------------------|
|-----55444488----55444488----554444-8-8\6-6-7-7-5-|
|-6666--------6666--------6666-----------------------|
|------------------------------------6--6\4-4-5-5-3-|
|----------------------------------------------------|
guitar two            2 times
|-riff-A---------------------------------------------|
|----------------------------------------------------|
|------------------------------------8--8\6--6-7-7-5-|
|----------------------------------------------------|
|-----33222266----33222266----332222-6-6\4--4-5-5-3-|
|-4444--------4444--------4444-----------------------|
both guitars          1 time
|-riff-B--------------------------------------------
|---------------------------------------------------
|---------------------------------------------------
|--------------------------------------------444477-
|-222233-------------------5-4-5-4-5-4-333333-------
|-------555555222222222222-3-2-3-2-3-2--------------
                           . . . . . .
 --------------------------------------|
 --------------------------------------|
 --------------------------------------|
 --------------------------------------|
 -222233-------------------5-4-5-4-5-4-|
 -------555555222222222222-3-2-3-2-3-2-|
                           . . . . . .
both guitars               2 times
|-riff-C-------------------------------------------------------------
|--------------------------------------------------------------------
|--------------------------9\7--7/8----------9/12-12\11-11\10-10-10-
|--------------------------------------------------------------------
|-333366665555333300000000-7\5--5/6-00000000-7/10-10\9--9\8--8--8--
|--------------------------------------------------------------------

 -----------------------------------------------------------------
 -----------------------------------------------------------------
 -10\9-9\8-------------------------------------------------------
 ---------------9\8-----4/5-----6\5--5-----9\8-----4/5-----6\5--5-
 --8\7-7\6-------------------------------------------------------
 -----------000-7\6-000-2/3-000-4\3--3-000-7\6-000-2/3-000-4\3--3-
            ...     ...     ...        ...     ...     ...
 -first-time--|
 ---only!!!---|
 -------------|
 -------------|
 -5-4-5-4-5-4-|
 -3-2-3-2-3-2-|
  . . . . . .

again riff A = 2 times
again riff B = 1 time
again riff C = 2 times

both guitars           4 times
|-riff-D---------------------------------------------|
|----------------------------------------------------|
|----------------------------------------------------|
|-------------------8\5--5---------------------------|
|---------------------------------10-----7-----9-7---|
|-6666330000669-000-6\3--3--0-000----7-0---5-0-----6-|
                ...         . ...    . .   . .
attention!!! The following changes are very tricky...
so be careful

both guitars             1 time
|-riff-E----------------------------------------------------------
|-----------------------------------------------------------------
|-----------------------------------------------------------------
|-----------------------------------------------------------------
|-------7-9-------7-9---------------------9-11--------9-11--------
|-0-6-8-----0-6-8-----0-6-8-0-8-10-0-8-10------0-8-10------0-8-10-
  . . .     . . .     . . . . . .  . . .       . . .       . . .
 ---------------------------------------------------------------|
 ---------------------------------------------------------------|
 ---------------------------------------------------------------|
 ---------------------------------------------------------------|
 -------------5-7-------5-7-------------------3-------5-------7-|
 -0-6-8-0-4-6-----0-4-6-----0-4-6-0-3-0-0-2-4---0-4-6---0-6-8---|
  . . . . . .     . . .     . . . . . . . . .   . . .   . . .
guitar one             second time
|-riff-E----------------------------------------------------------
|-----------------------------------------------------------------
|-----------------------------------------------------------------
|-----------------------------------------------------------------
|-------7-9-------7-9---------------------9-11--------9-11--------
|-0-6-8-----0-6-8-----0-6-8-0-8-10-0-8-10------0-8-10------0-8-10-
  . . .     . . .     . . . . . .  . . .       . . .       . . .
 -----------------------------------------------|
 -----------------------------------------------|
 -----------------------------------------------|
 -----------------------------------------------|
 -------------5-7-------5-7-------------------3-|
 -0-6-8-0-4-6-----0-4-6-----0-4-6-0-3-0-0-2-4---|
  . . . . . .     . . .     . . . . . . . . .
guitar two             second time
|-riff-E----------------------------------------------------------
|-----------------------------------------------------------------
|-----------------------------------------------------------------
|-------6-8-------6-8---------------------8-10--------8-10--------
|-----------------------------------------------------------------
|-0-6-8-----0-6-8-----0-6-8-0-8-10-0-8-10------0-8-10------0-8-10-
  . . .     . . .     . . . . . .  . . .       . . .       . . .
 -----------------------------------------------|
 -----------------------------------------------|
 -----------------------------------------------|
 -------------4-6-------4-6-------------------2-|
 -----------------------------------------------|
 -0-6-8-0-4-6-----0-4-6-----0-4-6-0-3-0-0-2-4---|
  . . . . . .     . . .     . . . . . . . . .
guitar one   3 times                   last time before
|-riff-F--------------------------|---jumping-into-riff-G---|
|---------------------------------|-------------------------|
|---------------------------------|-------------------------|
|---------6-----------------------|---------6---------------|
|-------5---------------4-------3-|-------5---------------4-|
|-0-4-6-----0-4-6-0-5-3---0-2-4---|-0-4-6-----0-4-6-0-5-3---|
  . . .     . . . . . .   . . .     . . .     . . . . . .
guitar two   3 times                   last time before
|-riff-F--------------------------|---jumping-into-riff-G---|
|---------------------------------|-------------------------|
|---------------------------------|-------------------------|
|---------6-------------3-------2-|---------6-------------3-|
|-------5-------------------------|-------5-----------------|
|-0-4-6-----0-4-6-0-5-3---0-2-4---|-0-4-6-----0-4-6-0-5-3---|
  . . .     . . . . . .   . . .     . . .     . . . . . .
guitar one             1 time
|-riff-G----------------------------------------------
|-----------------------------------------------------
|-----------------------------------------------------
|---------7--------9---11----11----11-----------------
|-4---7-8-----8-10---8----10----10----10--------------
|---6-------7-----------------------------0-4-6-0-5-3-
    . . .   .        .    .     .         . . . . . .
 ------------------------------------|
 ------------------------------------|
 ------------------------------------|
 ---------7--------9---11----11----9-|
 -4---7-8-----8-10---8----10----10---|
 ---6-------7------------------------|
    . . .   .        .    .     .
guitar two             1 time
|-riff-G------------------------------------------
|-------------------------------------------------
|---------6-------8---10---10---10----------------
|-3---6-7-----7-9---7----9----9----9--------------
|---5-------6-------------------------------------
|-------------------------------------0-4-6-0-5-3-
    . . .   .       .    .    .    .  . . . . . .
|---------------------------------|
|---------------------------------|
|---------6-------8---10---10---8-|
|-3---6-7-----7-9---7----9----9---|
|---5-------6---------------------|
|---------------------------------|
    . . .   .       .    .    .
both guitars 16 times
|---------------------|
|---------------------|
|-8p0-4p0-8p0-8p0-4p0-|
|---------------------|
|---------------------|
|---------------------|

a third guitar is playing something
like this above guitar one&two
(clean tone with some effects)
|-0--------(2-times)----------|
|-5------7--------------------|
|-6------8------5------6------|
|-7------9------6------7------|
|-4------9------7------8------|
|---------------8------8------|
then...
both guitars 8 times
|---------------------|
|---------------------|
|-8p0-4p0-8p0-8p0-4p0-|
|---------------------|
|---------------------|
|---------------------|

third guitar above the others
|-------(8-times)--------|
|------------------------|
|-11p0-7p0-11p0-11p0-7p0-|
|------------------------|
|------------------------|
|------------------------|

again riff A under solo = 2 times
again riff D under solo = 2 times
then ...
again riff A = 2 times
at least again riff B = 1 time

 -ending on---||
 ----this-----||
 -------------||
 -------------||
 -5-4-5-4-5-4-||
 -3-2-3-2-3-2-||
  . . . . .

  Visit MetalTabs.com for more metal tablature

bottom separator

Contact Us | Privacy Policy | Disclaimer
Copyright © 2001-2014 MetalTabs.com. All Rights Reserved.