top separator

Home

Forum

What's New

Submit a Tab

FAQ

Links

Contact Us

Link to Us

MetalTabs.com logo

Bands

0-9

A

B

C

D

E

F

G

H

I

J

K

L

M

N

O

P

Q

R

S

T

U

V

W

X

Y

Z

Search

What

Where
 

Cacophony - "Speed Metal Symphony" Guitar Tab

Plain Text Version
More Cacophony Tabs

Hits: 15927
Rated: 3.67 out of 5 (15 votes)
Updated: 2004-11-08 18:16:17

 

By:

MetalGuitarFro

sendpm.gif

email.gif

Important note
We did our best to reach Cacophony and ask for their permission to publish this tab. Unfortunately they did not respond to our requests or we could not find a way to contact them. This tab is available online until Cacophony tells us to take it down.


#----------------------------------PLEASE NOTE---------------------------------#
#This file is the author's own work and represents their interpretation of the #
#song. You may only use this file for private study, scholarship, or research. #
#Unless specified otherwise, this is NOT an official tab from the band members.#
#------------------------------------------------------------------------------#

  Visit MetalTabs.com for more metal tablature
  
Cacophony - Speed Metal Symphony
Album - Speed Metal Symphony (1986)
Sharpnel Records
David D. (metalguitarfro@yahoo.com)

Here's one of the guitar's in Speed Metal Symphony. It really is quite fun to
play. Enjoy!

E||---------------------5-----|-------------5----------------5-----|
B||--------------5----5---5---|------5----5---5-------5----5---5---|
G||------------5----5-------5-|----5----5-------5---5----5-------5-|
D||----------7----------------|--7----------------7----------------|
A||---------------------------|------------------------------------|
E||---------------------------|------------------------------------|



-------------5----------------5-----|-------------5----------------5-----|
------5----5---5-------5----5---5---|------5----5---5-------5----5---5---|
----5----5-------5---5----5-------5-|----5----5-------5---5----5-------5-|
--7----------------7----------------|--7----------------7----------------|
------------------------------------|------------------------------------|
------------------------------------|------------------------------------|



-------------5----------------5-----|-------------5----------------5-----|
------5----5---5-------5----5---5---|------5----5---5-------5----5---5---|
----5----5-------5---5----5-------5-|----5----5-------5---5----5-------5-|
--7----------------7----------------|--7----------------7----------------|
------------------------------------|------------------------------------|
------------------------------------|------------------------------------|



-------------5----------------5-----|-------------5----------------5-----|
------5----5---5-------5----5---5---|------5----5---5-------5----5---5---|
----5----5-------5---5----5-------5-|----5----5-------5---5----5-------5-|
--7----------------7----------------|--7----------------7----------------|
------------------------------------|------------------------------------|
------------------------------------|------------------------------------|



-------------5----------------5-----|-----------||---------------------|
------5----5---5-------5----5---5---|-----------||---------------------|
----5----5-------5---5----5-------5-|-----------||*--------------------|
--7----------------7----------------|-----------||*--10----------------|
------------------------------------|--x--------||---8-----------------|
------------------------------------|-----------||---------------------|



-------------------|-------------------|--------------------------|
-------------------|-------------------|--------------------------|
-------------------|-------------------|--------------------------|
-------------------|--2----------------|--------------------------|
--2----------------|--0----------------|-----3--3--2--2--5--5--3--|
--0----------------|-------------------|--5-----------------------|



---------------------------||------------5---------------5-8-12-8-------|
---------------------------||----------5---5-------5---5----------10----|
--------------------------*||--------5-------5-------5---------------9--|
-----3--2-----------------*||------7-----------7------------------------|
--3--------5--2--3--1------||----7---------------7----------------------|
-----------------------5---||--8----------------------------------------|



-------------8-17-12-----------------------8-12/20----|------------------|
----------10---------13-----------------10------------|------------------|
--------9---------------12-9----------9---------------|------------------|
-----10----------------------10----10-----------------|------------------|
--12----------------------------12--------------------|------------------|
------------------------------------------------------|------------------|



-------------------|------------------------|-------6------5-3-------|
-------------------|-------6------5---------|------------------6--3--|
-------------------|----------------7-5--4--|--3---------------------|
-------------------|--7---------------------|------------------------|
----------------8--|------------------------|------------------------|
-------------------|------------------------|------------------------|



-------4------5-7----8--5----|
--5---------------5----------|
-----------------------------|
-----------------------------|
-----------------------------|
-----------------------------|



-----17-12----------------12----------17-12-------------------|
--13-------13-12----12-13----13-12-13-------13-12-------13----|
-----------------14-------------------------------14----------|
--------------------------------------------------------------|
--------------------------------------------------------------|
--------------------------------------------------------------|



-----17-12----------------12----------17-12-------|---------------------------|
--13-------13-12----12-13----13-12-13-------13-12-|--------10------8----------|
-----------------14-------------------------------|--14--------------10-9--8--|
--------------------------------------------------|---------------------------|
--------------------------------------------------|---------------------------|
--------------------------------------------------|---------------------------|



-------10------8-----------|---------------8-10----10--|--8--------------8-7-5-|
-----------------11-10--8--|--9----12-----------9------|-----------------------|
--7------------------------|---------------------------|-----------------------|
---------------------------|---------------------------|-----------------------|
---------------------------|---------------------------|-----------------------|
---------------------------|---------------------------|-----------------------|



---------10-8-7--------12-10-8-|------8-10-13-12-10------------------10-8-7-|
--8-------------8--------------|--10----------------13-12-10----------------|
-------------------------------|-----------------------------12-------------|
-------------------------------|--------------------------------------------|
-------------------------------|--------------------------------------------|
-------------------------------|--------------------------------------------|



---------12-10-8-----------------|
--8--------------8------10-12-13-|
---------------------------------|
---------------------------------|
---------------------------------|
---------------------------------|



--10-13-12------------------------------------|
-----------13-12-10---------------------------|
--------------------12-10-9-------------------|
----------------------------12-10-9-10--------|
----------------------------------------------|
----------------------------------------------|



--16-17-16-12-13-12-16-17-16-12-13-12-16-17-16-12-13-12-16-17-16-19-20-19-|
--------------------------------------------------------------------------|
--------------------------------------------------------------------------|
--------------------------------------------------------------------------|
--------------------------------------------------------------------------|
--------------------------------------------------------------------------|



--16-17-16-12-13-12-----------------------------------------|
--------------------18-17-15--15-13-15-13-12-13-12----------|
---------------------------------------------------14-13----|
------------------------------------------------------------|
------------------------------------------------------------|
------------------------------------------------------------|



-------------8-12-8----13-10-----------------|
----------10--------10-------12-9------------|
--------9-------------------------10---------|
-----10------------------------------12-9----|
--12--------------------------------------11-|
---------------------------------------------|



-------------8-12-8----13-10----------10-16-13--------|
----------10--------10-------12----12----------15-12--|
--------9-----------------------13--------------------|
-----10-----------------------------------------------|
--12--------------------------------------------------|
------------------------------------------------------|



--13-15-17-15-13-------------------------12-13-15-|
-----------------15----15-------12-13-15----------|
--------------------14----12-14-------------------|
--------------------------------------------------|
--------------------------------------------------|
--------------------------------------------------|



--------12----------------------------------12-13-|
--13-15----15-13-------------------12-13-15-------|
-----------------14-12-14----12-14----------------|
--------------------------15----------------------|
--------------------------------------------------|
--------------------------------------------------|



-----12-13-12----13-12-13-13-15-17-15-13-17-15-17-|
--15----------15----------------------------------|
--------------------------------------------------|
--------------------------------------------------|
--------------------------------------------------|
--------------------------------------------------|



--12-13-15-13-12-------------12-15-12-------|
-----------------15-13-12-13----------13----|
--------------------------------------------|
--------------------------------------------|
--------------------------------------------|
--------------------------------------------|



-------------------------------------------10-12-13-13-12-10----------|
----------------------------------10-12-13-------------------13-12-10-|
--------------------------9-10-12-------------------------------------|
------------------9-10-12---------------------------------------------|
----------8-10-12-----------------------------------------------------|
--8-10-12-------------------------------------------------------------|



--------------------------------------8-10-12-12-10-8---------|
------------------------------8-10-12-----------------12-10-8-|
-----------------------7-9-10---------------------------------|
----------------7-9-10----------------------------------------|
---------7-8-10-----------------------------------------------|
--7-8-10------------------------------------------------------|



---------------------------------7-8-10-10-8-7--------|
--------------------------6-8-10---------------10-8-6-|
--------------------5-7-9-----------------------------|
--------------5-7-9-----------------------------------|
--------5-7-8-----------------------------------------|
--5-7-8-----------------------------------------------|



--9-7-6--------8-6-5-6-5---5---------------------|
--------11-9-7-----------6---6-8-6-5-6-5---5-----|
-----------------------------------------7---7-5-|
-------------------------------------------------|
-------------------------------------------------|
-------------------------------------------------|



----------------------------------------------|
----------------------------------8-----------|
--7-5---5---------------6-7-6---6---6-7-6-5-6-|
------8---8-7-8-7-5-7-8-------8---------------|
----------------------------------------------|
----------------------------------------------|



------------6--------------------10----------------------------|
--5-6-5---5---6-5-5-6-9-10-9-9-9----9---------9-10----------10-|
--------6-----------------------------10-9-10------10-10-10----|
---------------------------------------------------------------|
---------------------------------------------------------------|
---------------------------------------------------------------|



--15-13-12-15-13-12-------------------------13-12-13-12-10-12-10-8-10-8----|
--------------------15-13-12-15-13-15-13-12-----------------------------11-|
---------------------------------------------------------------------------|
---------------------------------------------------------------------------|
---------------------------------------------------------------------------|
---------------------------------------------------------------------------|



--13-12-10-12-10----10----------------13-12-10-12-10----10-----------|
-----------------13----13-12-13-12-10----------------13----13-12-13--|
---------------------------------------------------------------------|
---------------------------------------------------------------------|
---------------------------------------------------------------------|
---------------------------------------------------------------------|



--12-10-8-10-8----8---------------12-10-8-10-8----8---------------|
---------------12---12-10-12-10-8--------------12---12-10-12-10-8-|
------------------------------------------------------------------|
------------------------------------------------------------------|
------------------------------------------------------------------|
------------------------------------------------------------------|



--10-8-7-8-7----7-------------10-8-7-8-7----7-------------|
-------------10---10-8-10-8-6------------10---10-8-10-8-6-|
----------------------------------------------------------|
----------------------------------------------------------|
----------------------------------------------------------|
----------------------------------------------------------|



--8-7-5-7-5---5-----------8-7-5-7-5---5-----------|
------------8---8-6-8-6-5-----------8---8-6-8-6-5-|
--------------------------------------------------|
--------------------------------------------------|
--------------------------------------------------|
--------------------------------------------------|



--7-5-3-5-3---3-----------------------------------|
------------6---6-5-6-5-3-5-3---3-----------------|
------------------------------5---5-4-5-4-2-4-2---|
------------------------------------------------5-|
--------------------------------------------------|
--------------------------------------------------|



--------------------------------------------------|-----------|
--------------------------------------------------|-----------|
--2-----------------------------------------------|-----------|
----5-3-5-3-2-3-2---2-----------------------------|-----------|
------------------5---5-3-5-3-2-3-2---2-----------|-----------|
------------------------------------5---5-3-5-3-1-|--0--------|



--------13-16-13----13-12-10-13-10---------10-13-10----10-7-10-7---|
--12-15----------15----------------12-9-12----------12-----------9-|
-------------------------------------------------------------------|
-------------------------------------------------------------------|
-------------------------------------------------------------------|
-------------------------------------------------------------------|



---------------------------------------------------|
--10-9-8-9-8-7-8-7-6-7-5-6-6-5-4-5-4-3-4-3-2-3-2-1-|
---------------------------------------------------|
---------------------------------------------------|
---------------------------------------------------|
---------------------------------------------------|



----------10----------------------------------------|
-----9-12----12-9-12-9-12-9----------9-9--9-6-9-6---|
--10------------------------10----10--------------7-|
-------------------------------12-------------------|
----------------------------------------------------|
----------------------------------------------------|



--------------------------------------------------|
--------------------------------------------------|
--8-7-6-7-6-5-6-5-4-5-4-3-4-3-2-3-2-1-2-1-0-1-0---|
------------------------------------------------3-|
--------------------------------------------------|
--------------------------------------------------|



-------------2--8--5--------------|-------------5--11--8---------------|
----------------------7-----------|-----------------------10-----------|
-------2--5--------------5--------|-------5--8----------------8--------|
--4-------------------------4--4--|--7---------------------------7--7--|
----------------------------------|------------------------------------|
----------------------------------|------------------------------------|



--------------7--13--10----------------|-----------------------10---------|
-------------------------12------------|--------------------9------12--9--|
----------10-----------------10--------|----------------------------------|
--9----9-------------------------9--9--|----------------12----------------|
---------------------------------------|--11--------11--------------------|
---------------------------------------|--------12------------------------|



------------------|-------------------|------------------|-------------------|
------------------|-------------------|------------------|-------------------|
------------------|-------------------|------------------|-------------------|
--12--------------|--2----------------|------------------|--2----------------|
------11----------|--0----------------|------------------|--2----------------|
----------12------|-------------------|------------------|--0----------------|



-------------------|-------------------|-------------------|-------------------|
-------------------|-------------------|-------------------|-------------------|
--0----------------|--2----------------|-------------------|-------------------|
--0----------------|--0----------------|--3----------------|--2----------------|
--x----------------|-------------------|--3----------------|--2----------------|
--3----------------|-------------------|--1----------------|--0----------------|



-------------------|-------------------|-------------------|-------------------|
-------------------|-------------------|-------------------|-------------------|
-------------------|-------------------|-------------------|-------------------|
--2----------------|--2----------------|--x----------------|--2----------------|
--0----------------|--0----------------|--x----------------|--2----------------|
-------------------|-------------------|-------------------|--0----------------|



-------------------|-------------------|-------------------|-------------------|
-------------------|-------------------|-------------------|-------------------|
--0----------------|--2----------------|-------------------|-------------------|
--0----------------|--0----------------|--3----------------|--2----------------|
--x----------------|-------------------|--3----------------|--2----------------|
--3----------------|-------------------|--1----------------|--0----------------|



------------------------|----------------------|----------------------|
------------------------|-------3----2----3----|-------3----2----3----|
------------------------|----------------------|----------------------|
--2--2--2----2--2--2----|----------------------|----------------------|
--0--0--0----0--0--0----|--2-------------------|--2-------------------|
------------------------|----------------------|----------------------|



----------------------|---------------------|------------------------|
--2-------------------|--2------------------|----------5--7--5-------|
-------5----4----5----|--------2---2--------|-------4-----------4----|
----------------------|---------------------|--2---------------------|
----------------------|---------------------|------------------------|
----------------------|---------------------|------------------------|



------------------------|------17--21--17--21--22--21--17--|
----------5--7--5-------|--19------------------------------|
-------4-----------4----|----------------------------------|
--5---------------------|----------------------------------|
------------------------|----------------------------------|
------------------------|----------------------------------|



--19----------------|----------------------|----------------------|
--------------------|-------3----2----3----|-------3----2----3----|
--------------------|----------------------|----------------------|
--------------------|----------------------|----------------------|
--------------------|--2-------------------|--2-------------------|
--------------------|----------------------|----------------------|



----------------------|---------------------|------------------------|
--2-------------------|--2------------------|----------5--7--5-------|
-------5----4----5----|--------2---2--------|-------4-----------4----|
----------------------|---------------------|--2---------------------|
----------------------|---------------------|------------------------|
----------------------|---------------------|------------------------|



------------------------|------17--21--17--21--22--21--17--|--19--------|
----------5--7--5-------|--19------------------------------|------------|
-------4-----------4----|----------------------------------|------------|
--5---------------------|----------------------------------|------------|
------------------------|----------------------------------|------------|
------------------------|----------------------------------|------------|



------------------|-----------------------|---------------------------|
------------------|-------------------9---|--------------------9--10--|
------------------|--9--------------9---9-|--11------------11---------|
------------------|---------------9-------|---------------------------|
------------------|-----------------------|---------------------------|
------------------|-----------------------|---------------------------|



---------------------|-----------------------------|---------------------|
--9------------12----|----10--9--------------------|---------------------|
---------------------|-----------11--------13--11--|--9---------9--------|
---------------------|-----------------------------|---------9-----------|
---------------------|-----------------------------|---------------------|
---------------------|-----------------------------|---------------------|



----------------------------------|------------------------|--10b-------|
---------9--12--10--9-10-9--------|------------------------|------------|
--9--11--------------------11--9--|--13----8--11--9--------|------------|
----------------------------------|------------------------|------------|
----------------------------------|------------------------|------------|
----------------------------------|------------------------|------------|



----------------------------------------------|
--13------12-13-12-10-12-13-10-12-13-10-12-13-|
----------------------------------------------|
----------------------------------------------|
----------------------------------------------|
----------------------------------------------|



---------------------------------------|
--13b-----13--12----12-13-15-12-13-15--|
-----------------14--------------------|
---------------------------------------|
---------------------------------------|
---------------------------------------|



---------------------------------------------|-----------------------------|
--15b-----15-13-12-15-13-15-13-12-13-15-17b--|---15-13-15-13-12------------|
---------------------------------------------|-----------------------------|
---------------------------------------------|-----------------------------|
---------------------------------------------|-----------------------------|
---------------------------------------------|-----------------------------|



--------------------|----------------------|--------------------------|
--13----------------|--13b-------------12b-|-----------------12-13-15-|
--------------------|----------------------|--------------14----------|
--------------------|----------------------|--------------------------|
--------------------|----------------------|--------------------------|
--------------------|----------------------|--------------------------|



--12------13-12-----------|
----------------15--------|
--------------------------|
--------------------------|
--------------------------|
--------------------------|



--------------------------------------------13----------------|
--13-------13-17-15-17-15-13-------------13----17-15-13-15-13-|
--------14-------------------15-14----14----------------------|
-----14----------------------------15-------------------------|
--------------------------------------------------------------|
--------------------------------------------------------------|



--------------15-------------------15----15----15----15-|
-----------15----18-17-15-17-15-------------------------|
--16----16----------------------17----16----14----12----|
-----17-------------------------------------------------|
--------------------------------------------------------|
--------------------------------------------------------|



--------------------------------------------13----------------|
--13-------13-17-15-17-15-13-------------13----17-15-13-15-13-|
--------14-------------------15-14----14----------------------|
-----14----------------------------15-------------------------|
--------------------------------------------------------------|
--------------------------------------------------------------|



--------------15-------------------15----15-------|
-----------15----18-17-15-17-15-------------------|
--16----16----------------------17----16----17----|
-----17-------------------------------------------|
--------------------------------------------------|
--------------------------------------------------|



--17-13----13-17-13-17-13----13-17-13-17-13----13-17-13-17-13----13-17-13-|
--------15----------------15----------------15----------------15----------|
--------------------------------------------------------------------------|
--------------------------------------------------------------------------|
--------------------------------------------------------------------------|
--------------------------------------------------------------------------|



--14-11----11-14-11-14-11----11-14-11-14-11----11-14-11-14-11----11-14-11-|
--------12----------------12----------------12----------------12----------|
--------------------------------------------------------------------------|
--------------------------------------------------------------------------|
--------------------------------------------------------------------------|
--------------------------------------------------------------------------|



--15-12----12-15-12-15-12----12-15-12-15-12----12-15-12-15-12----12-15-12-|
--------12----------------12----------------12----------------12----------|
--------------------------------------------------------------------------|
--------------------------------------------------------------------------|
--------------------------------------------------------------------------|
--------------------------------------------------------------------------|



--15-12----12-15-12-15-12----12-15-12-15-12----12-15-12-15-12----12-15-12-|
--------13----------------13----------------13----------------13----------|
--------------------------------------------------------------------------|
--------------------------------------------------------------------------|
--------------------------------------------------------------------------|
--------------------------------------------------------------------------|



--17-13----13-17-13-17-13----13-17-13-17-13----13-17-13-17-13----13-17-13-|
--------15----------------15----------------15----------------15----------|
--------------------------------------------------------------------------|
--------------------------------------------------------------------------|
--------------------------------------------------------------------------|
--------------------------------------------------------------------------|



--14-11----11-14-11-14-11----11-14-11-14-11----11-14-11-14-11----11-14-11-|
--------12----------------12----------------12----------------12----------|
--------------------------------------------------------------------------|
--------------------------------------------------------------------------|
--------------------------------------------------------------------------|
--------------------------------------------------------------------------|



--15-12----12-15-12-15-12----12-15-12-15-12----12-15-12-15-12----12-15-12-|
--------12----------------12----------------12----------------12----------|
--------------------------------------------------------------------------|
--------------------------------------------------------------------------|
--------------------------------------------------------------------------|
--------------------------------------------------------------------------|



--11-8---8-11-8-11-8---8-11-8-11-8---8-11-8-11-8---8-11-8-|
-------8-------------8-------------8-------------8--------|
----------------------------------------------------------|
----------------------------------------------------------|
----------------------------------------------------------|
----------------------------------------------------------|



--9-6---6-9-6-9-6---6-9-6-9-6---6-9-6-9-6---6-9-6-|
------8-----------8-----------8-----------8-------|
--------------------------------------------------|
--------------------------------------------------|
--------------------------------------------------|
--------------------------------------------------|



--10-6---6-10-6-10-6---6-10-6-10-6---6-10-6-10-6---6-10-6-|
-------6-------------6-------------6-------------6--------|
----------------------------------------------------------|
----------------------------------------------------------|
----------------------------------------------------------|

  Visit MetalTabs.com for more metal tablature

bottom separator

Contact Us | Privacy Policy | Disclaimer | Legal Notice
Copyright © 2001-2014 MetalTabs.com. All Rights Reserved.