top separator

Home

Forum

What's New

Submit a Tab

FAQ

Links

Contact Us

Link to Us

MuSpy.com

MetalTabs.com logo

Bands

0-9

A

B

C

D

E

F

G

H

I

J

K

L

M

N

O

P

Q

R

S

T

U

V

W

X

Y

Z

Search

What

Where
 

Napalm Death - "Politicians (Raw Power)" Bass Tab

Plain Text Version
More Napalm Death Tabs

Hits: 4046
Rated: 5.00 out of 5 (1 vote)
Updated: 2004-11-08 17:47:52

 

By:

mikeslaughter

sendpm.gif

email.gif

Important note
This tab is available online because we obtained explicit permission from Napalm Death or their label.


#----------------------------------PLEASE NOTE---------------------------------#
#This file is the author's own work and represents their interpretation of the #
#song. You may only use this file for private study, scholarship, or research. #
#Unless specified otherwise, this is NOT an official tab from the band members.#
#------------------------------------------------------------------------------#

  Visit MetalTabs.com for more metal tablature
  
Band:  Napalm Death
Album: Leaders Not Followers
Song:  Politicians

Copyright (c)  Relapse 2000

Transcribed By: Michael Slaughter
Email:          redear16@hotmail.com

Intro
G--------------------------
D--------------------------
A--------------------------
E-4--4--7--7---9---9--7--7-

Next Bit
G-------------------------------------------------------------------------
D-------------------------------------------------------------------------
A-------------------------------------------------------------------------
E-4-4-4-4-4-4-4-4-7-7-7-7-7-7-7-7--9--9--9--9--9--9--9--9-7-7-7-7-7-7-7-7-

Then
G-------------------------------------------
D-------------------------------------------
A-------------------------------------------
E-4-5-6-7--8--9-10-11-12~~------12----------


Verse
G--------------------------
D--------------------------
A-6--9--6--11--------------
E-4--7--4---9--------------

  Visit MetalTabs.com for more metal tablature

bottom separator

Contact Us | Privacy Policy | Disclaimer | Legal Notice
Copyright © 2001-2014 MetalTabs.com. All Rights Reserved.