top separator

Home

Forum

What's New

Submit a Tab

FAQ

Links

Contact Us

Link to Us

MetalTabs.com logo

Bands

0-9

A

B

C

D

E

F

G

H

I

J

K

L

M

N

O

P

Q

R

S

T

U

V

W

X

Y

Z

Search

What

Where
 

Disavowed - "Rhizome" Guitar Tab

Plain Text Version
More Disavowed Tabs

Hits: 5006
Rated: 4.60 out of 5 (5 votes)
Updated: 2006-02-11 04:23:06

 

By:

Yura

sendpm.gif

email.gif

Important note
This tab is available online because we obtained explicit permission from Disavowed or their label.


#----------------------------------PLEASE NOTE---------------------------------#
#This file is the author's own work and represents their interpretation of the #
#song. You may only use this file for private study, scholarship, or research. #
#Unless specified otherwise, this is NOT an official tab from the band members.#
#------------------------------------------------------------------------------#

  Visit MetalTabs.com for more metal tablature
  
Song : RHIZOME
Band : DISAVOWED
ALBUM : PERCEPTIVE DECEPTION
Copyright Unique Leader Records 2001

Version 2.0 (January'06)
Transcribed by : Yura Kowalchuk
       contact : yura_kowalchuk@mail.ru
URL: [www.blood-scrapes.nm.ru]

::TABULATURE LEGEND::
 " - tremolo             h - hammer on
 ~ - vibrato             \ - slide down
 p - pull off            / - slide down
 tr - trill              ^ - pinch harmonics
 = - sustained note      b - bend string
 p.m. - palm muting      t - tapping

Tuning is D [D, G, C, F, A, D]

[Riff 1]
|--------------------------------------|--------------------------------------|
|--------------------------------------|--------------------------------------|
|--------------------------------------|--------------------------------------|
|---------------------------7p5-8p5----|---------------------------7p5-8p5----|
|---7-----7---8-7---7---------------5~-|---7-----7---8-7---7---------------8~-|
|-0---0-6---0-----0---0-6-5------------|-0---0-6---0-----0---0-6-5------------|
tr.........................             tr........................

[Riff 2 (x2)]
|---------------------------------|---------------------------------|
|---------------------------------|---------------------------------|
|---------------------------------|---------------------------------|
|---------------------------------|-----------------5h4-------------|
|-----3h4-----3h4-----3h4-----4h5-|-----3h4-----3h4-------------3h4-|
|-0-2-----0-2-----0-2-----0-3-----|-0-2-----0-2---------6p5-0-2-----|
  . .     . .     . .     . .       . .     . .             . .

[RIFF 1 with ending 1]

[ending 1]
|-----------------|
|-----------------|
|-----------------|
|-----------------|
|---7-----------3-|
|-0---0-6-5-5---1-|
tr...........   .

[Riff 3 (x2)]
|-----------------|-----------------|
|-----------------|-----------------|
|-----------------|-----------------|
|-----------3-----|-----------------|
|---2---------2-3-|---2-------3-----|
|-1---1-2-1-------|-1---1-2-2---2-3-|
tr.................................

[Riff 4 (x2)]
|-----------------|-----------------|
|-----------------|-----------------|
|-----------------|-----------------|
|-----------------|-----------------|
|-3-------4-------|-3---------3-4---|
|---1-4-3---2-5-4-|---1-4-3-2-----2-|
tr.................................

[RIFF 3 (x2)]

[Riff 5 (x5)]
|-----------------|-----------------|
|-----------------|-----------------|
|-----------------|-----------------|
|---4-5---4-5-----|---4-5---4-5-6-5-|
|-3-2-3-3-2-3-3-2-|-3-2-3-3-2-3-4-3-|
|-1-----1-----1-0-|-1-----1---------|
  . . . . . . . .   . . . . . . . .

[Riff 6 (x4)]
|---------------|-----------------|
|---------------|-----------------|
|---------------|-----------------|
|----------2"3"-|--------2"3"6"5"-|
|---------------|-----------------|
|-0"....-1"-----|-0"..-1"---------|

[RIFF 5 (x2)] [RIFF 6] [RIFF 6 (1 BAR ONLY)]

[Outro]
|------------------|
|------------------|
|------------------|
|------------------|
|---4-3-0-3--------|
|-0---------5-4----|
tr.................

[Riff 7 (x2)]
|-----------------------------|-------------------------------|
|-----------------------------|-------------------------------|
|-----------------------------|-------------------------------|
|-------2-3---------2-3-6-5---|-------2-3---------------------|
|-----------------------------|-----------------4-3-0-3-------|
|-1-0-1-----0-1-0-1-----------|-1-0-1-----0-1-0---------5-4---|
tr............................................................

[RIFF 1 (x2)] [RIFF 2 (x2)] [RIFF 1] [RIFF 1 (1 bar)] [RIFF 5 (1 bar)]

[Riff 8 (x3)]
|-----------------------|---------------------------|
|-----------------------|---------------------------|
|-----------------------|---------------------------|
|-----------------------|---------------------------|
|-3---------3-----3/4-3-|-3---------3-----3---------|
|-1-0000-0--1--0--1/2-1-|-1-0000-0--1--0--1--2"....-|
    .... .     .            .... .     .

[RIFF 8 (1 BAR ONLY)]

[BASS OUTRO:]
|--------------------------------|
|-----------------5p4------------|
|-----3h4-----3h4------------3h4-|
|-0-2-----0-2--------6p5-0-2-----|

[RIFF 2 (x2)] [RIFF 5 (x2)] [RIFF 8 (x2)] [RIFF 8 [1 bar only]]
[outro] [RIFF 7 (x2)] [RIFF 3 (x2)] [RIFF 4 (x2)] [RIFF 3]

[Outro 2]
|-----------------|------------------|
|-----------------|------------------|
|-----------------|------------------|
|-----------3-----|---5p4------------|
|-------2-----2-3-|-3---------4-5--2-|
|-1-2-1---1-------|-1-----6p5-2-3--0-|
tr................  .         . .  .

[RIFF 8 (x3)]
[RIFF 8 [1 bar only]]

[Final Ending:]
|------------------------|
|------------------------|
|------------------------|
|---5p4------------------|
|-3---------4-5---3-2----|
|-1-----6p5-2-3---1-0----|
  .         . .   . .

END OF SONG

  Visit MetalTabs.com for more metal tablature

bottom separator

Contact Us | Privacy Policy | Disclaimer | Legal Notice
Copyright © 2001-2014 MetalTabs.com. All Rights Reserved.