top separator

Home

Forum

What's New

Submit a Tab

FAQ

Links

Contact Us

Link to Us

MuSpy.com

MetalTabs.com logo

Bands

0-9

A

B

C

D

E

F

G

H

I

J

K

L

M

N

O

P

Q

R

S

T

U

V

W

X

Y

Z

Search

What

Where
 

The Crown - "Deathexplosion" Bass Tab

Plain Text Version
More The Crown Tabs

Hits: 2736
Updated: 2004-11-02 06:08:26

 

By:

Woutjinho

sendpm.gif

email.gif

Important note
We did our best to reach The Crown and ask for their permission to publish this tab. Unfortunately they did not respond to our requests or we could not find a way to contact them. This tab is available online until The Crown tells us to take it down.


#----------------------------------PLEASE NOTE---------------------------------#
#This file is the author's own work and represents their interpretation of the #
#song. You may only use this file for private study, scholarship, or research. #
#Unless specified otherwise, this is NOT an official tab from the band members.#
#------------------------------------------------------------------------------#

  Visit MetalTabs.com for more metal tablature
  
Band:  The Crown
Album: Deathrace King
Song:  Deathexplosion

Copyright (c)  Metal Blade records 2000
Version 1.0 - 26-10'04

Transcribed By: Woutjinho
Email:          woutjinho@hotmail.com


.  - palm mute           /  - slide up to
\  - slide down to       ~  - vibrato
h  - hammer on           b  - Bend
p  - pull off            Suffixes for bend
t  - tap                 f  - full bend    h - half bend
ph - pinched harmonic    q  - quarter bend t - tap bend
*  - see comment         ^  - Hold bend    r release bend
x  - Stuccatto           ~  - vibrato bend
,  - slight palm mute    () - ghost note, sustained note
"  - tremolo note        <> - Trill

Tunning E A D G


 Intro
  Q=215
 4/4
|---------|---------|---------|---------|-----|
|---------|---------|---------|---------|-----|
|---------|---------|---------|---------|-----|
|---------|---------|---------|---------|-----|

|---------|---------|---------|-----|
|---------|---------|---------|-----|
|---------|---------|---------|-----|
|---------|---------|---------|-----|

   Pre-Verse
||-----------|---------------|-----------------------|
||o----------|---------------|-----------------------|
||o-3--------|-(3)--2--3--2--|-----------------------|
||-----------|---------------|-0-0-0-0-0-0-0-0-0-0-0-|

  1.,2.,3.                  4.
|------------------------||-----------------------|
|-----------------------o||-----------------------|
|-----------------------o||-----------------------|
|-0-0-0-0-0-0-0-0-0-0-0--||-0-0-0-0-0-0-0-0-0-0---|

   Verse
                                                         1.
    PM|   PM|   PM|     PM|   PM  PM    PM|   PM|   PM|     PM|   PM
||------------------|-----------------|-----------------|-------------------||
||o-----------------|-----------------|-----------------|------------------o||
||o-----7-----7-----|-7-----7---6---6-|-----7-----7-----|-7-----7----------o||
||--0-0---0-0---0-0-|---0-0---0---0---|-0-0---0-0---0-0-|---0-0---0-6-5-3---||

  2.
  PM|   PM    PM    PM  PM
|-----------------|--------------------|
|-----------------|--------------------|
|-----7---7-7---7-|---7---7-7-7-7-7-7--|
|-0-0---0-----0---|-0---0--------------|

                                      PM  PM
|-----------------------|---------------------|
|-----------------------|---------------------|
|-----------------------|---------------6---6-|
|-0-0-0-0-0-0-0-0-0-0-0-|-0-0-0-0-0-0-0---0---|

|-----------------------|------------------------|
|-----------------------|------------------------|
|-----------------------|-------------7-7-7-7-7--|
|-0-0-0-0-0-0-0-0-0-0-0-|-0-0-0-0-0-0------------|

                                      PM  PM
|-----------------------|---------------------|
|-----------------------|---------------------|
|-----------------------|---------------6---6-|
|-0-0-0-0-0-0-0-0-0-0-0-|-0-0-0-0-0-0-0---0---|

|-----------------------|------------------------|
|-----------------------|------------------------|
|-----------------------|------------------------|
|-0-0-0-0-0-0-0-0-0-0-0-|-0-0-0-0-0-0-0-6\-5-3---|

                                      PM  PM
|-----------------------|---------------------|
|-----------------------|---------------------|
|-----------------------|---------------6---6-|
|-0-0-0-0-0-0-0-0-0-0-0-|-0-0-0-0-0-0-0---0---|

                          PM|   PM    PM    PM  PM
|-----------------------|-----------------|--------------------|
|-----------------------|-----------------|--------------------|
|-----------------------|-----7---7-7---7-|---7---7-7-7-7-7-7--|
|-0-0-0-0-0-0-0-0-0-0-0-|-0-0---0-----0---|-0---0--------------|

   Chorus
                                                                  4x
||-------------|-----------------|------------|-------------------||
||o------------|-----------------|------------|------------------o||
||o-2---3---5--|-(5)-3---2-3/-5--|-2---3---5--|-(5)-3---2-3\-0---o||
||-------------|-----------------|------------|-------------------||

 Verse
|---------|-------------|---------|------------|
|---------|-------------|---------|------------|
|---------|-------6---6-|---------|------------|
|---------|-----x---x---|---------|------6-5-3-|

|----------|-------------|-----------|---------------------|
|----------|-------------|-----------|---------------------|
|----------|-------6---6-|-----------|----------7-7-7-7-7--|
|-0--------|-----x---x---|-10--------|-(10)--x-------------|

                                        PM  PM
||------------------------|---------------------|
||o-----------------------|---------------------|
||o-----------------------|---------------6---6-|
||--0-0-0-0-0-0-0-0-0-0-0-|-0-0-0-0-0-0-0---0---|

|-----------------------|-----------------------|
|-----------------------|-----------------------|
|-----------------------|-----------------------|
|-0-0-0-0-0-0-0-0-0-0-0-|-0-0-0-0-0-0-0-6\-5-3--|

                                      PM  PM
|-----------------------|---------------------|
|-----------------------|---------------------|
|-----------------------|---------------6---6-|
|-0-0-0-0-0-0-0-0-0-0-0-|-0-0-0-0-0-0-0---0---|

                          PM|   PM    PM    PM  PM
|-----------------------|-----------------|---------------------||
|-----------------------|-----------------|--------------------o||
|-----------------------|-----7---7-7---7-|---7---7-7-7-7-7-7--o||
|-0-0-0-0-0-0-0-0-0-0-0-|-0-0---0-----0---|-0---0---------------||

   Chorus

   Solo
||-----------|---------------|-----------------------|
||o----------|---------------|-----------------------|
||o-3--------|-(3)--2--3--2--|-----------------------|
||-----------|---------------|-0-0-0-0-0-0-0-0-0-0-0-|

  1.,2.,3.                  4.
|------------------------||-----------------------|
|-----------------------o||-----------------------|
|-----------------------o||-----------------------|
|-0-0-0-0-0-0-0-0-0-0-0--||-0-0-0-0-0-0-0-0-0-0---|

||------------------------|-----------------------|
||o-----------------------|-----------------------|
||o-----------------------|-5-5-5-5-5-5-5-5-5-5-5-|
||--0-0-0-0-0-0-0-0-0-0-0-|-----------------------|

|-----------------------|----------------------||
|-----------------------|---------------------o||
|-----------------------|---------------------o||
|-0-0-0-0-0-0-0-0-0-0-0-|-5-5-5-5-5-5-6\-5-3---||

||------------------------|-----------------------|
||o-----------------------|-5-5-5-5-5-5-5-5-5-5-5-|
||o-0-0-0-0-0-0-0-0-0-0-0-|-----------------------|
||------------------------|-----------------------|

|-----------------------|----------------------||
|-----------------------|---------------------o||
|-0-0-0-0-0-0-0-0-0-0-0-|-5-5-5-5-5-5-6\-5-3--o||
|-----------------------|----------------------||

   Chorus

   Breakdown
||-----------|------------|----------|------|
||o----------|------------|----------|------|
||o-0--------|-(0)--------|-1--------|------|
||-----------|------------|----------|-3----|

                                               5x
|----------|------------|------------|---------||
|----------|------------|------------|--------o||
|-0--------|-(0)--------|-(0)--------|-(0)----o||
|----------|------------|------------|---------||

   Outro
||-----------|------------|----------|------|
||o----------|------------|----------|------|
||o-0--------|-(0)--------|-1--------|------|
||-----------|------------|----------|-3----|

                                 PM----|
|----------|------------|----------------|--------||
|----------|------------|----------------|-------o||
|-0--------|-(0)--------|-(0)----0-0-0-0-|-0-----o||
|----------|------------|----------------|--------||

End

  Visit MetalTabs.com for more metal tablature

bottom separator

Contact Us | Privacy Policy | Disclaimer | Legal Notice
Copyright © 2001-2014 MetalTabs.com. All Rights Reserved.