top separator

Home

Forum

What's New

Submit a Tab

FAQ

Links

Contact Us

Link to Us

MetalTabs.com logo

Bands

0-9

A

B

C

D

E

F

G

H

I

J

K

L

M

N

O

P

Q

R

S

T

U

V

W

X

Y

Z

Search

What

Where
 

Sodom - "Wachturm" Bass Tab

Plain Text Version
More Sodom Tabs

Hits: 5763
Rated: 4.67 out of 5 (6 votes)
Updated: 2004-11-02 06:05:48

 

By:

Sodomaniac

sendpm.gif

email.gif

Important note
This tab is available online because we obtained explicit permission from Sodom or their label.


#----------------------------------PLEASE NOTE---------------------------------#
#This file is the author's own work and represents their interpretation of the #
#song. You may only use this file for private study, scholarship, or research. #
#Unless specified otherwise, this is NOT an official tab from the band members.#
#------------------------------------------------------------------------------#

  Visit MetalTabs.com for more metal tablature
  
Band: Sodom
Album:  Tapping The Vein
Song: Wachturm

Transcribed By: sodomaniac
Email: torbenauras@aol.com


Intro:
G---------|
D---------|
A---------|
E--3---5--|


Riff 1:
G------------------------------------------------
D------------------------------------------------
A------------------------------------------------
E--0--0-0-0--0--0--0-0-0--0--0--0-0-0--0--3---5--

G------------------------------------------------|
D------------------------------------------------|
A------------------------------------------------|
E--0--0-0-0--0--0--0-0-0--0--0--0-0-0--0--5---3--|


Riff 2:
G---------------------------------------------------------|
D---------------------------------------------------------|
A---------------------------------------------------------|
E--0-0-0-0-0-0-0-0-0-0-0-0-0-0-0-0-0-0-0-0-0-0-0-0-3---5--|


Riff 3:
G------------------------------------------------------|
D------------------------------------------------------|
A------------------------------------------------------|
E--5--5-5-5--5--7--7-7-7--7--0--0-0-0--0--0--0-0-0--0--|


Riff 4:
G---------------------------------------------------
D---------------------------------------------------
A---------------------------------------------------
E--0--0--0--0--0--0--0--0--0--0--0--0--0--0--3---5--

G---------------------------------------------------|
D---------------------------------------------------|
A---------------------------------------------------|
E--0--0--0--0--0--0--0--0--0--0--0--0--0--0--5---3--|


Outro:
G-----------------------------------------------------------|
D-----------------------------------------------------------|
A-----------------------------------------------------------|
E--3--5--3--5--3--5--------0-0-0-0-0-0-0-0-0-0-0-0-0-0-0-0--|


Order:

Intro  x1
Riff 1 x1
Riff 2 x4
Riff 3 x2
Riff 1 x2
Riff 2 x4
Riff 3 x2
Riff 1 x5
Riff 4 x2
Riff 1 x1
Riff 2 x4
Riff 3 x2
Riff 1 x4
Outro

  Visit MetalTabs.com for more metal tablature

bottom separator

Contact Us | Privacy Policy | Disclaimer | Legal Notice
Copyright © 2001-2014 MetalTabs.com. All Rights Reserved.