top separator

Home

Forum

What's New

Submit a Tab

FAQ

Links

Contact Us

Link to Us

MuSpy.com

MetalTabs.com logo

Bands

0-9

A

B

C

D

E

F

G

H

I

J

K

L

M

N

O

P

Q

R

S

T

U

V

W

X

Y

Z

Search

What

Where
 

Aria (RU) - "Rose Street" Guitar Tab

Plain Text Version
More Aria (RU) Tabs

Hits: 2930
Rated: 5.00 out of 5 (2 votes)
Updated: 2004-11-02 06:04:06

 

By:

Russian Bull

sendpm.gif

email.gif

Important note
This tab is available online because we obtained explicit permission from Aria (RU) or their label.


#----------------------------------PLEASE NOTE---------------------------------#
#This file is the author's own work and represents their interpretation of the #
#song. You may only use this file for private study, scholarship, or research. #
#Unless specified otherwise, this is NOT an official tab from the band members.#
#------------------------------------------------------------------------------#

  Visit MetalTabs.com for more metal tablature
  
Band:  Aria
Album: Hero Of Asphalt
Song:  rose street
Copyright (c)  2004
Version 1.0 - 10.10/2004

Transcribed By: Russian Bull
Email:          cleanhip@mail.ru


.  - palm mute           /  - slide up to
\  - slide down to       ~  - vibrato
h  - hammer on           b  - Bend
p  - pull off            Suffixes for bend
t  - tap                 f  - full bend    h - half bend
ph - pinched harmonic    q  - quarter bend t - tap bend
*  - see comment         ^  - Hold bend    r release bend
x  - Stuccatto           ~  - vibrato bend
,  - slight palm mute    () - ghost note, sustained note
"  - tremolo note        <> - Trill

Tunning E A D G B E

|----------------------------------|
|--15----------15----------15------|
|--14----------14----------14------|
|------12--12------12--12------12--|
|----------------------------------|
|----------------------------------|



----------------------------------|----------------------------------|
--15----------15----------15------|--15----------15----------15------|
--15----------15----------15------|--14----------14----------14------|
------12--12------12--12------12--|------12--12------12--12------12--|
----------------------------------|----------------------------------|
----------------------------------|----------------------------------|



----------------------------------|----------------------------------|
--15----------15----------15------|--15----------15----------15------|
--15----------15----------15------|--14----------14----------14------|
------12--12------12--12------12--|------12--12------12--12------12--|
----------------------------------|----------------------------------|
----------------------------------|----------------------------------|



----------------------------------|----------------------------------|
--15----------15----------15------|--15----------15----------15------|
--15----------15----------15------|--14----------14----------14------|
------12--12------12--12------12--|------12--12------12--12------12--|
----------------------------------|----------------------------------|
----------------------------------|----------------------------------|



----------------------------------|----------------------------------|
--15----------15----------15------|--15----------15----------15------|
--15----------15----------15------|--14----------14----------14------|
------12--12------12--12------12--|------12--12------12--12------12--|
----------------------------------|----------------------------------|
----------------------------------|----------------------------------|



----------------------------------|----------------------------------|
--15----------15----------15------|--15----------15----------15------|
--15----------15----------15------|--14----------14----------14------|
------12--12------12--12------12--|------12--12------12--12------12--|
----------------------------------|----------------------------------|
----------------------------------|----------------------------------|



----------------------------------|----------------------------------|
--15----------15----------15------|--15----------15----------15------|
--15----------15----------15------|--14----------14----------14------|
------12--12------12--12------12--|------12--12------12--12------12--|
----------------------------------|----------------------------------|
----------------------------------|----------------------------------|



----------------------------------|----------------------------------|
--15----------15----------15------|--17----------17----------17------|
--15----------15----------15------|--16----------16----------16------|
------12--12------12--12------12--|------14--14------14--14------14--|
----------------------------------|----------------------------------|
----------------------------------|----------------------------------|



----------------------------------|----------------------------------|
--14----------14----------14------|--15----------15----------15------|
--14----------14----------14------|--14----------14----------14------|
------11--11------11--11------11--|------12--12------12--12------12--|
----------------------------------|----------------------------------|
----------------------------------|----------------------------------|



----------------------------------|----------------------------------|
--15----------15----------15------|--15----------15----------15------|
--15----------15----------15------|--14----------14----------14------|
------12--12------12--12------12--|------12--12------12--12------12--|
----------------------------------|----------------------------------|
----------------------------------|----------------------------------|



----------------------------------|----------------------------------|
--15----------15----------15------|--15----------15----------15------|
--15----------15----------15------|--14----------14----------14------|
------12--12------12--12------12--|------12--12------12--12------12--|
----------------------------------|----------------------------------|
----------------------------------|----------------------------------|



----------------------------------|----------------------------------|
--15----------15----------15------|--17----------17----------17------|
--15----------15----------15------|--16----------16----------16------|
------12--12------12--12------12--|------14--14------14--14------14--|
----------------------------------|----------------------------------|
----------------------------------|----------------------------------|



----------------------------------|-------------------|-------------------|
--14----------14----------14------|-------------------|-------------------|
--14----------14----------14------|--3----------------|--5----------------|
------11--11------11--11------11--|--3----------------|--5----------------|
----------------------------------|--1----------------|--3----------------|
----------------------------------|-------------------|-------------------|



---------------------|-------------------|-------------------|
--10--------8--------|--6----------------|-------------------|
--10--------9--------|--7----------------|--3----------------|
--10--------9--------|--7----------------|--5----------------|
--8---------7--------|--5----------------|--5----------------|
---------------------|-------------------|--3----------------|



------------------|-------------------|------------------|
------------------|-------------------|------------------|
------------------|--6----------------|------------------|
------------------|--7----------------|------------------|
------------------|--7----------------|------------------|
------------------|--5----------------|------------------|



----------------------------------|----------------------------------|
--15----------15----------15------|--15----------15----------15------|
--14----------14----------14------|--15----------15----------15------|
------12--12------12--12------12--|------12--12------12--12------12--|
----------------------------------|----------------------------------|
----------------------------------|----------------------------------|



----------------------------------|----------------------------------|
--15----------15----------15------|--15----------15----------15------|
--14----------14----------14------|--15----------15----------15------|
------12--12------12--12------12--|------12--12------12--12------12--|
----------------------------------|----------------------------------|
----------------------------------|----------------------------------|



----------------------------------|----------------------------------|
--15----------15----------15------|--15----------15----------15------|
--14----------14----------14------|--15----------15----------15------|
------12--12------12--12------12--|------12--12------12--12------12--|
----------------------------------|----------------------------------|
----------------------------------|----------------------------------|



----------------------------------|----------------------------------|
--17----------17----------17------|--14----------14----------14------|
--16----------16----------16------|--14----------14----------14------|
------14--14------14--14------14--|------11--11------11--11------11--|
----------------------------------|----------------------------------|
----------------------------------|----------------------------------|



----------------------------------|----------------------------------|
--15----------15----------15------|--15----------15----------15------|
--14----------14----------14------|--15----------15----------15------|
------12--12------12--12------12--|------12--12------12--12------12--|
----------------------------------|----------------------------------|
----------------------------------|----------------------------------|



----------------------------------|----------------------------------|
--15----------15----------15------|--15----------15----------15------|
--14----------14----------14------|--15----------15----------15------|
------12--12------12--12------12--|------12--12------12--12------12--|
----------------------------------|----------------------------------|
----------------------------------|----------------------------------|



----------------------------------|----------------------------------|
--15----------15----------15------|--15----------15----------15------|
--14----------14----------14------|--15----------15----------15------|
------12--12------12--12------12--|------12--12------12--12------12--|
----------------------------------|----------------------------------|
----------------------------------|----------------------------------|



----------------------------------|----------------------------------|
--17----------17----------17------|--14----------14----------14------|
--16----------16----------16------|--14----------14----------14------|
------14--14------14--14------14--|------11--11------11--11------11--|
----------------------------------|----------------------------------|
----------------------------------|----------------------------------|



-------------------|-------------------|---------------------|
-------------------|-------------------|--10--------8--------|
--3----------------|--5----------------|--10--------9--------|
--3----------------|--5----------------|--10--------9--------|
--1----------------|--3----------------|--8---------7--------|
-------------------|-------------------|---------------------|



-------------------|-------------------|------------------|-------------------|
--6----------------|-------------------|------------------|-------------------|
--7----------------|--3----------------|------------------|--6----------------|
--7----------------|--5----------------|------------------|--7----------------|
--5----------------|--5----------------|------------------|--7----------------|
-------------------|--3----------------|------------------|--5----------------|



------------------|--------------------------|--------------------------|
------------------|--------------------------|--------------------------|
------------------|--------------------------|--------------------------|
------------------|--3--------3--------3-----|--3--------3--------3-----|
------------------|--1--1--1--1--1--1--1--1--|--1--1--1--1--1--1--1--1--|
------------------|--------------------------|--------------------------|



--------------------------|--------------------------|
--------------------------|--------------------------|
--------------------------|--------------------------|
--3--------3--------3-----|--3--------3--------3-----|
--3--------3--------3-----|--3--------3--------3-----|
--1--1--1--1--1--1--1--1--|--1--1--1--1--1--1--1--1--|



--------------------------|--------------------------|
--------------------------|--------------------------|
--------------------------|--------------------------|
--5--------5--------5-----|--5--------5--------5-----|
--3--3--3--3--3--3--3--3--|--3--3--3--3--3--3--3--3--|
--------------------------|--------------------------|



--------------------------|--------------------------|
--------------------------|--------------------------|
--------------------------|--------------------------|
--7--------7--------7-----|--7--------7--------7-----|
--5--5--5--5--5--5--5--5--|--5--5--5--5--5--5--5--5--|
--------------------------|--------------------------|



--------------------------|--------------------------|
--------------------------|--------------------------|
--------------------------|--------------------------|
--3--------3--------3-----|--3--------3--------3-----|
--1--1--1--1--1--1--1--1--|--1--1--1--1--1--1--1--1--|
--------------------------|--------------------------|



--------------------------|--------------------------|
--------------------------|--------------------------|
--------------------------|--------------------------|
--3--------3--------3-----|--3--------3--------3-----|
--3--------3--------3-----|--3--------3--------3-----|
--1--1--1--1--1--1--1--1--|--1--1--1--1--1--1--1--1--|



--------------------------|--------------------------|
--------------------------|--------------------------|
--------------------------|--------------------------|
--5--------5--------5-----|--5--------5--------5-----|
--3--3--3--3--3--3--3--3--|--3--3--3--3--3--3--3--3--|
--------------------------|--------------------------|



--------------------------|--------------------------|-------------------|
--------------------------|--------------------------|-------------------|
--------------------------|--------------------------|--3----------------|
--7--------7--------7-----|--7--------7--------------|--3----------------|
--5--5--5--5--5--5--5--5--|--5--5--5--5--5--5--5h-0--|--1----------------|
--------------------------|--------------------------|-------------------|



----------------------|-------------------|----------------------|
----------------------|-------------------|----------------------|
----------------------|--2----------------|----------------------|
----------------------|--2----------------|----------------------|
----------0--0--0--0--|--0----------------|----------0--0--0--0--|
----------------------|-------------------|----------------------|



-------------------|---------------------|--------------------------|
-------------------|---------------------|--------------------------|
--3----------------|--5------------------|--------------------------|
--3----------------|--5------------------|--------------------------|
--1----------------|--3------------0--0--|--1--1--1--1--1--1--1--1--|
-------------------|---------------------|--------------------------|



--------------------------|----------------------------------|
--------------------------|--15----------15----------15------|
--------------------------|--14----------14----------14------|
--------------3--2--------|------12--12------12--12------12--|
--3--0--3--5--------3--5--|----------------------------------|
--------------------------|----------------------------------|



----------------------------------|----------------------------------|
--15----------15----------15------|--15----------15----------15------|
--15----------15----------15------|--14----------14----------14------|
------12--12------12--12------12--|------12--12------12--12------12--|
----------------------------------|----------------------------------|
----------------------------------|----------------------------------|



----------------------------------|----------------------------------|
--15----------15----------15------|--15----------15----------15------|
--15----------15----------15------|--14----------14----------14------|
------12--12------12--12------12--|------12--12------12--12------12--|
----------------------------------|----------------------------------|
----------------------------------|----------------------------------|



----------------------------------|----------------------------------|
--15----------15----------15------|--15----------15----------15------|
--15----------15----------15------|--14----------14----------14------|
------12--12------12--12------12--|------12--12------12--12------12--|
----------------------------------|----------------------------------|
----------------------------------|----------------------------------|



----------------------------------|----------------------------------|
--15----------15----------15------|--15----------15----------15------|
--15----------15----------15------|--14----------14----------14------|
------12--12------12--12------12--|------12--12------12--12------12--|
----------------------------------|----------------------------------|
----------------------------------|----------------------------------|



----------------------------------|----------------------------------|
--15----------15----------15------|--17----------17----------17------|
--15----------15----------15------|--16----------16----------16------|
------12--12------12--12------12--|------14--14------14--14------14--|
----------------------------------|----------------------------------|
----------------------------------|----------------------------------|



----------------------------------|----------------------------------|
--14----------14----------14------|--15----------15----------15------|
--14----------14----------14------|--14----------14----------14------|
------11--11------11--11------11--|------12--12------12--12------12--|
----------------------------------|----------------------------------|
----------------------------------|----------------------------------|



----------------------------------|----------------------------------|
--15----------15----------15------|--15----------15----------15------|
--15----------15----------15------|--14----------14----------14------|
------12--12------12--12------12--|------12--12------12--12------12--|
----------------------------------|----------------------------------|
----------------------------------|----------------------------------|



----------------------------------|----------------------------------|
--15----------15----------15------|--15----------15----------15------|
--15----------15----------15------|--14----------14----------14------|
------12--12------12--12------12--|------12--12------12--12------12--|
----------------------------------|----------------------------------|
----------------------------------|----------------------------------|



----------------------------------|----------------------------------|
--15----------15----------15------|--17----------17----------17------|
--15----------15----------15------|--16----------16----------16------|
------12--12------12--12------12--|------14--14------14--14------14--|
----------------------------------|----------------------------------|
----------------------------------|----------------------------------|



----------------------------------|-------------------|-------------------|
--14----------14----------14------|-------------------|-------------------|
--14----------14----------14------|--3----------------|--5----------------|
------11--11------11--11------11--|--3----------------|--5----------------|
----------------------------------|--1----------------|--3----------------|
----------------------------------|-------------------|-------------------|



---------------------|-------------------|-------------------|
--10--------8--------|--6----------------|-------------------|
--10--------9--------|--7----------------|--3----------------|
--10--------9--------|--7----------------|--5----------------|
--8---------7--------|--5----------------|--5----------------|
---------------------|-------------------|--3----------------|



------------------|-------------------|------------------|
------------------|-------------------|------------------|
------------------|--6----------------|------------------|
------------------|--7----------------|------------------|
------------------|--7----------------|------------------|
------------------|--5----------------|------------------|



--------------------------|--------------------------|
--------------------------|--------------------------|
--------------------------|--------------------------|
--3--------3--------3-----|--3--------3--------3-----|
--1--1--1--1--1--1--1--1--|--1--1--1--1--1--1--1--1--|
--------------------------|--------------------------|



--------------------------|--------------------------|
--------------------------|--------------------------|
--------------------------|--------------------------|
--3--------3--------3-----|--3--------3--------3-----|
--3--------3--------3-----|--3--------3--------3-----|
--1--1--1--1--1--1--1--1--|--1--1--1--1--1--1--1--1--|



--------------------------|--------------------------|
--------------------------|--------------------------|
--------------------------|--------------------------|
--5--------5--------5-----|--5--------5--------5-----|
--3--3--3--3--3--3--3--3--|--3--3--3--3--3--3--3--3--|
--------------------------|--------------------------|



--------------------------|--------------------------|
--------------------------|--------------------------|
--------------------------|--------------------------|
--7--------7--------7-----|--7--------7--------7-----|
--5--5--5--5--5--5--5--5--|--5--5--5--5--5--5--5--5--|
--------------------------|--------------------------|



--------------------------|--------------------------|
--------------------------|--------------------------|
--------------------------|--------------------------|
--3--------3--------3-----|--3--------3--------3-----|
--1--1--1--1--1--1--1--1--|--1--1--1--1--1--1--1--1--|
--------------------------|--------------------------|



--------------------------|--------------------------|
--------------------------|--------------------------|
--------------------------|--------------------------|
--3--------3--------3-----|--3--------3--------3-----|
--3--------3--------3-----|--3--------3--------3-----|
--1--1--1--1--1--1--1--1--|--1--1--1--1--1--1--1--1--|



--------------------------|--------------------------|
--------------------------|--------------------------|
--------------------------|--------------------------|
--5--------5--------5-----|--5--------5--------5-----|
--3--3--3--3--3--3--3--3--|--3--3--3--3--3--3--3--3--|
--------------------------|--------------------------|



--------------------------|--------------------------|-------------------|
--------------------------|--------------------------|-------------------|
--------------------------|--------------------------|--3----------------|
--7--------7--------7-----|--7--------7--------------|--3----------------|
--5--5--5--5--5--5--5--5--|--5--5--5--5--5--5--5h-0--|--1----------------|
--------------------------|--------------------------|-------------------|



----------------------|-------------------|----------------------|
----------------------|-------------------|----------------------|
----------------------|--2----------------|----------------------|
----------------------|--2----------------|----------------------|
----------0--0--0--0--|--0----------------|----------0--0--0--0--|
----------------------|-------------------|----------------------|



-------------------|---------------------|------------------|
-------------------|---------------------|------------------|
--3----------------|--5------------------|------------------|
--3----------------|--5------------------|------------------|
--1----------------|--3------------0--0--|------------------|
-------------------|---------------------|------------------|



----------12h9-15h12h9-15h13h10-|
--------------------------------|
--------------------------------|
--------------------------------|
--------------------------------|
--------------------------------|



--17h13h10-17h13h10-17h13h10-17h13h10-17h13h10-17h13h10-17h13h10-17h13h10-|
--------------------------------------------------------------------------|
--------------------------------------------------------------------------|
--------------------------------------------------------------------------|
--------------------------------------------------------------------------|
--------------------------------------------------------------------------|



--17h13h10-18h13h10-17h13h10-18h13h10-17h13h10-18h13h10-17h13h10-18h13h10-|
--------------------------------------------------------------------------|
--------------------------------------------------------------------------|
--------------------------------------------------------------------------|
--------------------------------------------------------------------------|
--------------------------------------------------------------------------|



---------------------------------------------------------------------|
--17h13h10-17h13h10-17h13h10-17h13h10-17h13h10-17h13h10-17h13h10-----|
---------------------------------------------------------------------|
-----------------------------------------------------------------12--|
---------------------------------------------------------------------|
---------------------------------------------------------------------|



------------------------------|------------------------------------------------|
------------------------------|------------------------------------------------|
--12b-------------12-12b12b12b|--12b-12b12b12b12b12b12b12b12b12b12b12b12r12r12r|
---------------12-------------|------------------------------------------------|
------------------------------|------------------------------------------------|
------------------------------|------------------------------------------------|



----------------------------------|-----------------------------------|
----------------------------------|-----------------------------------|
--12-12-12-12-12-12b12~--------12r|-----0h2h3h5h3h2---2---------------|
----------------------------------|-----------------5---5-3-2-5-------|
----------------------------------|-----------------------------0--5--|
----------------------------------|-----------------------------------|



----------------------------|----------------------|
----------------------------|----------------------|
-------------------------7--|---------------10--9--|
----------------8--7--7-----|------------7---------|
--8h5-5--7h5-5--------------|----------------------|
----------------------------|----------------------|



-----------------------------|------------13----------|
---------------------13--12~-|----------------12--11--|
-------12--10----------------|------------------------|
-----7------------12---------|------------------------|
-----------------------------|------------------------|
-----------------------------|------------------------|



----13--------------------------|---------------------------|
--------11--10------------------|------------------13h12h10-|
---------------------12h10h9----|---------------------------|
-----------------------------10-|--12-----------------------|
--------------------------------|---------------------------|
--------------------------------|---------------------------|



--------------------------------------------------|
--------------------------------------------------|
--12--12h10h12h10h12------------------------------|
----------------------10h12h10h12h10--12h10-------|
--------------------------------------------10----|
--------------------------------------------------|



------------12--------13--------15--------|--------15-17-18/20-20b---------|
-----12-13-----13h12-----15h12-----17h13--|--17-18-------------------------|
--13--------------------------------------|--------------------------------|
------------------------------------------|--------------------------------|
------------------------------------------|--------------------------------|
------------------------------------------|--------------------------------|



-------------------|-------------------|---------------------|
-------------------|-------------------|---------------------|
--3----------------|--5----------------|--10--------9--------|
--3----------------|--5----------------|--10--------9--------|
--1----------------|--3----------------|--8---------7--------|
-------------------|-------------------|---------------------|



-------------------|-------------------|------------------|-------------------|
-------------------|-------------------|------------------|-------------------|
--7----------------|-------------------|------------------|-------------------|
--7----------------|--5----------------|------------------|--7----------------|
--5----------------|--5----------------|------------------|--7----------------|
-------------------|--3----------------|------------------|--5----------------|



------------------|-------------------|-------------------|
------------------|-------------------|-------------------|
------------------|--3----------------|--5----------------|
------------------|--3----------------|--5----------------|
------------------|--1----------------|--3----------------|
------------------|-------------------|-------------------|



---------------------|-------------------|-------------------|
---------------------|-------------------|-------------------|
--10--------9--------|--7----------------|-------------------|
--10--------9--------|--7----------------|--5----------------|
--8---------7--------|--5----------------|--5----------------|
---------------------|-------------------|--3----------------|



------------------|-------------------|------------------|
------------------|-------------------|------------------|
------------------|-------------------|------------------|
------------------|--7----------------|------------------|
------------------|--7----------------|------------------|
------------------|--5----------------|------------------|



----------------------------------|----------------------------------|
--15----------15----------15------|--15----------15----------15------|
--14----------14----------14------|--15----------15----------15------|
------12--12------12--12------12--|------12--12------12--12------12--|
----------------------------------|----------------------------------|
----------------------------------|----------------------------------|



----------------------------------|----------------------------------|
--15----------15----------15------|--15----------15----------15------|
--14----------14----------14------|--15----------15----------15------|
------12--12------12--12------12--|------12--12------12--12------12--|
----------------------------------|----------------------------------|
----------------------------------|----------------------------------|



----------------------------------|----------------------------------|
--15----------15----------15------|--15----------15----------15------|
--14----------14----------14------|--15----------15----------15------|
------12--12------12--12------12--|------12--12------12--12------12--|
----------------------------------|----------------------------------|
----------------------------------|----------------------------------|



----------------------------------|----------------------------------|
--15----------15----------15------|--15----------15----------15------|
--14----------14----------14------|--15----------15----------15------|
------12--12------12--12------12--|------12--12------12--12------12--|
----------------------------------|----------------------------------|
----------------------------------|----------------------------------|



----------------------------------|----------------------------------|
--15----------15----------15------|--15----------15----------15------|
--14----------14----------14------|--15----------15----------15------|
------12--12------12--12------12--|------12--12------12--12------12--|
----------------------------------|----------------------------------|
----------------------------------|----------------------------------|



----------------------------------|----------------------------------|
--15----------15----------15------|--15----------15----------15------|
--14----------14----------14------|--15----------15----------15------|
------12--12------12--12------12--|------12--12------12--12------12--|
----------------------------------|----------------------------------|
----------------------------------|----------------------------------|



----------------------------------|----------------------------------|
--15----------15----------15------|--15----------15----------15------|
--14----------14----------14------|--15----------15----------15------|
------12--12------12--12------12--|------12--12------12--12------12--|
----------------------------------|----------------------------------|
----------------------------------|----------------------------------|



----------------------------------|----------------------------------|
--15----------15----------15------|--15----------15----------15------|
--14----------14----------14------|--15----------15----------15------|
------12--12------12--12------12--|------12--12------12--12------12--|
----------------------------------|----------------------------------|
----------------------------------|----------------------------------|



----------------------------------|----------------------------------|
--15----------15----------15------|--15----------15----------15------|
--14----------14----------14------|--15----------15----------15------|
------12--12------12--12------12--|------12--12------12--12------12--|
----------------------------------|----------------------------------|
----------------------------------|----------------------------------|



----------------------------------|----------------------------------|
--17----------17----------17------|--14----------14----------14------|
--16----------16----------16------|--14----------14----------14------|
------14--14------14--14------14--|------11--11------11--11------11--|
----------------------------------|----------------------------------|
----------------------------------|----------------------------------|



----------------------------------|----------------------------------|
--15----------15----------15------|--15----------15----------15------|
--14----------14----------14------|--15----------15----------15------|
------12--12------12--12------12--|------12--12------12--12------12--|
----------------------------------|----------------------------------|
----------------------------------|----------------------------------|



----------------------------------|----------------------------------|
--15----------15----------15------|--15----------15----------15------|
--14----------14----------14------|--15----------15----------15------|
------12--12------12--12------12--|------12--12------12--12------12--|
----------------------------------|----------------------------------|
----------------------------------|----------------------------------|



----------------------------------|----------------------------------|
--15----------15----------15------|--15----------15----------15------|
--14----------14----------14------|--15----------15----------15------|
------12--12------12--12------12--|------12--12------12--12------12--|
----------------------------------|----------------------------------|
----------------------------------|----------------------------------|



----------------------------------|----------------------------------|
--17----------17----------17------|--14----------14----------14------|
--16----------16----------16------|--14----------14----------14------|
------14--14------14--14------14--|------11--11------11--11------11--|
----------------------------------|----------------------------------|
----------------------------------|----------------------------------|



-------------------|-------------------|---------------------|
-------------------|-------------------|--10--------8--------|
--3----------------|--5----------------|--10--------9--------|
--3----------------|--5----------------|--10--------9--------|
--1----------------|--3----------------|--8---------7--------|
-------------------|-------------------|---------------------|



-------------------|-------------------|------------------|-------------------|
--6----------------|-------------------|------------------|-------------------|
--7----------------|--3----------------|------------------|--6----------------|
--7----------------|--5----------------|------------------|--7----------------|
--5----------------|--5----------------|------------------|--7----------------|
-------------------|--3----------------|------------------|--5----------------|



------------------|--------------------------|--------------------------|
------------------|--------------------------|--------------------------|
------------------|--------------------------|--------------------------|
------------------|--3--------3--------3-----|--3--------3--------3-----|
------------------|--1--1--1--1--1--1--1--1--|--1--1--1--1--1--1--1--1--|
------------------|--------------------------|--------------------------|



--------------------------|--------------------------|
--------------------------|--------------------------|
--------------------------|--------------------------|
--3--------3--------3-----|--3--------3--------3-----|
--3--------3--------3-----|--3--------3--------3-----|
--1--1--1--1--1--1--1--1--|--1--1--1--1--1--1--1--1--|



--------------------------|--------------------------|
--------------------------|--------------------------|
--------------------------|--------------------------|
--5--------5--------5-----|--5--------5--------5-----|
--3--3--3--3--3--3--3--3--|--3--3--3--3--3--3--3--3--|
--------------------------|--------------------------|



--------------------------|--------------------------|
--------------------------|--------------------------|
--------------------------|--------------------------|
--7--------7--------7-----|--7--------7--------7-----|
--5--5--5--5--5--5--5--5--|--5--5--5--5--5--5--5--5--|
--------------------------|--------------------------|



--------------------------|--------------------------|
--------------------------|--------------------------|
--------------------------|--------------------------|
--3--------3--------3-----|--3--------3--------3-----|
--1--1--1--1--1--1--1--1--|--1--1--1--1--1--1--1--1--|
--------------------------|--------------------------|



--------------------------|--------------------------|
--------------------------|--------------------------|
--------------------------|--------------------------|
--3--------3--------3-----|--3--------3--------3-----|
--3--------3--------3-----|--3--------3--------3-----|
--1--1--1--1--1--1--1--1--|--1--1--1--1--1--1--1--1--|



--------------------------|--------------------------|
--------------------------|--------------------------|
--------------------------|--------------------------|
--5--------5--------5-----|--5--------5--------5-----|
--3--3--3--3--3--3--3--3--|--3--3--3--3--3--3--3--3--|
--------------------------|--------------------------|



--------------------------|--------------------------|-------------------|
--------------------------|--------------------------|-------------------|
--------------------------|--------------------------|--3----------------|
--7--------7--------7-----|--7--------7--------------|--3----------------|
--5--5--5--5--5--5--5--5--|--5--5--5--5--5--5--5h-0--|--1----------------|
--------------------------|--------------------------|-------------------|



----------------------|-------------------|----------------------|
----------------------|-------------------|----------------------|
----------------------|--2----------------|----------------------|
----------------------|--2----------------|----------------------|
----------0--0--0--0--|--0----------------|----------0--0--0--0--|
----------------------|-------------------|----------------------|



-------------------|---------------------|--------------------------|
-------------------|---------------------|--------------------------|
--3----------------|--5------------------|--------------------------|
--3----------------|--5------------------|--------------------------|
--1----------------|--3------------0--0--|--1--1--1--1--1--1--1--1--|
-------------------|---------------------|--------------------------|



--------------------------|-------------------|------------------|----||
--------------------------|-------------------|------------------|----||
--------------------------|--7----------------|------------------|----||
--------------3--2--------|--7----------------|------------------|----||
--3--0--3--5--------3--5--|--5----------------|------------------|----||
--------------------------|-------------------|------------------|----||

  Visit MetalTabs.com for more metal tablature

bottom separator

Contact Us | Privacy Policy | Disclaimer | Legal Notice
Copyright © 2001-2014 MetalTabs.com. All Rights Reserved.