top separator

Home

Forum

What's New

Submit a Tab

FAQ

Links

Contact Us

Link to Us

MuSpy.com

MetalTabs.com logo

Bands

0-9

A

B

C

D

E

F

G

H

I

J

K

L

M

N

O

P

Q

R

S

T

U

V

W

X

Y

Z

Search

What

Where
 

Aria (RU) - "Blood For Blood" Guitar Tab

Plain Text Version
More Aria (RU) Tabs

Hits: 2800
Rated: 5.00 out of 5 (1 vote)
Updated: 2004-11-02 06:03:53

 

By:

Russian Bull

sendpm.gif

email.gif

Important note
This tab is available online because we obtained explicit permission from Aria (RU) or their label.


#----------------------------------PLEASE NOTE---------------------------------#
#This file is the author's own work and represents their interpretation of the #
#song. You may only use this file for private study, scholarship, or research. #
#Unless specified otherwise, this is NOT an official tab from the band members.#
#------------------------------------------------------------------------------#

  Visit MetalTabs.com for more metal tablature
  
Band:  Aria
Album: Blood for blood
Song:  Blood for blood

Copyright (c)  2004
Version 1.0 - 10.10/2004

Transcribed By: Russian Bull
Email:          cleanhip@mail.ru


.  - palm mute           /  - slide up to
\  - slide down to       ~  - vibrato
h  - hammer on           b  - Bend
p  - pull off            Suffixes for bend
t  - tap                 f  - full bend    h - half bend
ph - pinched harmonic    q  - quarter bend t - tap bend
*  - see comment         ^  - Hold bend    r release bend
x  - Stuccatto           ~  - vibrato bend
,  - slight palm mute    () - ghost note, sustained note
"  - tremolo note        <> - Trill

Tunning E A D G B E

      Em                         C                   Adim
|---3----2h-3h-2------------|--0----------------|--2----0h-2h-0------------|
|---0-------------5----3----|--1----------------|--1-------------3----1----|
|*--0-----------------------|--0----------------|--2-----------------------|
|*--2-----------------------|--2----------------|--1-----------------------|
|---2-----------------------|--3----------------|--------------------------|
|---0-----------------------|-------------------|--------------------------|


  B7                  Em                         C6
--2----------------|--3----2h-3h-2-------3----|--5----3----0--------|
--0----------------|--0-------------5---------|--5------------------|
--2----------------|--0-----------------------|--5------------------|
--1----------------|--2-----------------------|--5---------2--------|
--2----------------|--2-----------------------|---------------------|
-------------------|--0-----------------------|---------------------|


  D                                      Em
--2--3--2--3--2h3h2h3h2h3h2h3h2h3h2h3-|--0-----------------||----------|
--3-----------------------------------|--0-----------------||----------|
--2-----------------------------------|--0----------------*||----------|
--0-----------------------------------|--2----------------*||----------|
--------------------------------------|--2-----------------||----------|
--------------------------------------|--0-----------------||----------|

----------|------------------------------|-------------------------------|
----------|------------------------------|-------------------------------|
----------|--2------3------2-------------|-------------------------------|
----------|----3-0----5-0----3-0--0------|------2-3-2--------------------|
----------|--------------------------5-5-|--3-5--------5-3-5--5-5-5--5-5-|
----------|------------------------------|-------------------------------|



------------------------------|-------------------------------|
------------------------------|-------------------------------|
--2------3------2-------------|-------------------------------|
----3-0----5-0----3-0--0------|------2-3-2--------------------|
--------------------------5-5-|--3-5--------5-3-0--0-0-0--0-0-|
------------------------------|-------------------------------|



------------------------------|-------------------------------|
------------------------------|-------------------------------|
--2------3------2-------------|-------------------------------|
----3-0----5-0----3-0--0------|------2-3-2--------------------|
--------------------------5-5-|--3-5--------5-3-5--5-5-5--5-5-|
------------------------------|-------------------------------|



------------------------------|-----------------|------------------------------|
------------------------------|-----------------|------------------------------|
--2------3------2-------------|-----------------|------------------------------|
----3-0----5-0----3-0--0------|------2-3-2------|--2--2-2-2--2-2-2--2-2-2--2-2-|
--------------------------5-5-|--3-5--------5-3-|--0--0-0-0--0-0-0--0-0-0--0-0-|
------------------------------|-----------------|------------------------------|



-----------------------------|------------------|------------------|
-----------------------------|------------------|------------------|
-----------------------------|------------------|------------------|
--2--2-2-2--2-2-2--2-2-2--5--|------------------|------------------|
--0--0-0-0--0-0-0--0-0-0--5--|------------------|------------------|
--------------------------3--|------------------|------------------|



------------------------------|----------------------------|------------------|
------------------------------|----------------------------|------------------|
------------------------7--5--|----------------------------|------------------|
----------7--5----------------|----------7--5-----8--7--5--|------------------|
--7-7-7-7-------7-7-7-7-------|--7-7-7-7-------7--------5--|------------------|
--5-5-5-5-------5-5-5-5-------|--5-5-5-5-------5--------3--|------------------|



------------------|------------------------------|---------------------------|
------------------|------------------------------|---------------------------|
------------------|------------------------7--5--|---------------------------|
------------------|----------7--5----------------|----------7--5-----8--7----|
------------------|--7-7-7-7-------7-7-7-7-------|--7-7-7-7-------7----------|
------------------|--5-5-5-5-------5-5-5-5-------|--5-5-5-5-------5----------|



-------------------|------------------|-------------------|------------------|
-------------------|------------------|-------------------|------------------|
-------------------|------------------|-------------------|------------------|
--4----------------|------------------|--5----------------|------------------|
--4----------------|------------------|--5----------------|------------------|
--2----------------|------------------|--3----------------|------------------|



-------------------|------------------|--------------------------|
-------------------|------------------|--------------------------|
-------------------|------------------|--6--0--9--0--6--0--9--0--|
--4----------------|------------------|--------------------------|
--4----------------|------------------|--------------------------|
--2----------------|------------------|--------------------------|



-------------------|------------------------------|
-------------------|------------------------------|
-------------------|--2------3------2-------------|
--7----------------|----3-0----5-0----3-0--0------|
--7----------------|--------------------------5-5-|
--5----------------|------------------------------|



-------------------------------|------------------------------|
-------------------------------|------------------------------|
-------------------------------|--2------3------2-------------|
------2-3-2--------------------|----3-0----5-0----3-0--0------|
--3-5--------5-3-5--5-5-5--5-5-|--------------------------5-5-|
-------------------------------|------------------------------|



-------------------------------|------------------------------|
-------------------------------|------------------------------|
-------------------------------|--2------3------2-------------|
------2-3-2--------------------|----3-0----5-0----3-0--0------|
--3-5--------5-3-0--0-0-0--0-0-|--------------------------5-5-|
-------------------------------|------------------------------|



-------------------------------|------------------------------|
-------------------------------|------------------------------|
-------------------------------|--2------3------2-------------|
------2-3-2--------------------|----3-0----5-0----3-0--0------|
--3-5--------5-3-5--5-5-5--5-5-|--------------------------5-5-|
-------------------------------|------------------------------|



-----------------|------------------------------|-----------------------------|
-----------------|------------------------------|-----------------------------|
-----------------|------------------------------|-----------------------------|
------2-3-2------|--2--2-2-2--2-2-2--2-2-2--2-2-|--2--2-2-2--2-2-2--2-2-2--5--|
--3-5--------5-3-|--0--0-0-0--0-0-0--0-0-0--0-0-|--0--0-0-0--0-0-0--0-0-0--5--|
-----------------|------------------------------|--------------------------3--|



------------------|------------------|------------------------------|
------------------|------------------|------------------------------|
------------------|------------------|------------------------7--5--|
------------------|------------------|----------7--5----------------|
------------------|------------------|--7-7-7-7-------7-7-7-7-------|
------------------|------------------|--5-5-5-5-------5-5-5-5-------|



----------------------------|------------------|------------------|
----------------------------|------------------|------------------|
----------------------------|------------------|------------------|
----------7--5-----8--7--5--|------------------|------------------|
--7-7-7-7-------7--------5--|------------------|------------------|
--5-5-5-5-------5--------3--|------------------|------------------|



------------------------------|---------------------------|-------------------|
------------------------------|---------------------------|-------------------|
------------------------7--5--|---------------------------|-------------------|
----------7--5----------------|----------7--5-----8--7----|--4----------------|
--7-7-7-7-------7-7-7-7-------|--7-7-7-7-------7----------|--4----------------|
--5-5-5-5-------5-5-5-5-------|--5-5-5-5-------5----------|--2----------------|



--------------------------|-------------------|--------------------------|
--------------------------|-------------------|--------------------------|
--6--0--9--0--6--0--9--0--|-------------------|--7--0--9--0--7--0--7--0--|
--------------------------|--5----------------|--------------------------|
--------------------------|--5----------------|--------------------------|
--------------------------|--3----------------|--------------------------|



-------------------|--------------------------|--------------------------|
-------------------|--------------------------|--------------------------|
-------------------|--6--0--9--0--6--0--9--0--|--6--0--9--0--6--0--9--0--|
--4----------------|--------------------------|--------------------------|
--4----------------|--------------------------|--------------------------|
--2----------------|--------------------------|--------------------------|



-------------------|------------------------------|
-------------------|------------------------------|
-------------------|--2------3------2-------------|
--7----------------|----3-0----5-0----3-0--0------|
--7----------------|--------------------------5-5-|
--5----------------|------------------------------|



-------------------------------|------------------------------|
-------------------------------|------------------------------|
-------------------------------|--2------3------2-------------|
------2-3-2--------------------|----3-0----5-0----3-0--0------|
--3-5--------5-3-5--5-5-5--5-5-|--------------------------5-5-|
-------------------------------|------------------------------|



-------------------------------|------------------------------|
-------------------------------|------------------------------|
-------------------------------|--2------3------2-------------|
------2-3-2--------------------|----3-0----5-0----3-0--0------|
--3-5--------5-3-0--0-0-0--0-0-|--------------------------5-5-|
-------------------------------|------------------------------|



-------------------------------|------------------------------|
-------------------------------|------------------------------|
-------------------------------|--2------3------2-------------|
------2-3-2--------------------|----3-0----5-0----3-0--0------|
--3-5--------5-3-5--5-5-5--5-5-|--------------------------5-5-|
-------------------------------|------------------------------|



-----------------|------------------------------|-----------------------------|
-----------------|------------------------------|-----------------------------|
-----------------|------------------------------|-----------------------------|
------2-3-2------|--2--2-2-2--2-2-2--2-2-2--2-2-|--2--2-2-2--2-2-2--2-2-2--2--|
--3-5--------5-3-|--0--0-0-0--0-0-0--0-0-0--0-0-|--0--0-0-0--0-0-0--0-0-0--0--|
-----------------|------------------------------|-----------------------------|



-------------------------------|-------------------------------|
-------------------------------|-------------------------------|
--9-7---9-7-9---9-7-9---7-9----|--7-5---5-7-5---5-8-5---5-8----|
------9-------9-------9--------|------7-------7-------7--------|
-------------------------------|-------------------------------|
-------------------------------|-------------------------------|



----------------------------------------|----------------------------|
----------------------------------------|----------------------------|
--9-7---9-7-9---7-9-11-9h11h9-7-9-7-----|--7-9-7-9-9h7h9-7--9--------|
------9-------9---------------------9-7-|----------------------------|
----------------------------------------|----------------------------|
----------------------------------------|----------------------------|



-------------------------------|-------------------------------|
--8-7---7-8-7---7-8-7---7-8----|--7-5---5-7-5---5-7-5---5-7----|
------9-------9-------9--------|------7-------7-------7--------|
-------------------------------|-------------------------------|
-------------------------------|-------------------------------|
-------------------------------|-------------------------------|



---------------------------------------|-------------------------|
--8-7---7-8-7---8-10-12-10-8-10-8------|--7-8-7-8-7--------------|
------9-------9-------------------11-9-|-------------7--9~-------|
---------------------------------------|-------------------------|
---------------------------------------|-------------------------|
---------------------------------------|-------------------------|



------------------|------------------|------------------|------------------|
------------------|------------------|------------------|------------------|
------------------|------------------|------------------|------------------|
------------------|------------------|------------------|------------------|
------------------|------------------|------------------|------------------|
------------------|------------------|------------------|------------------|



------------------|------------------|------------------|------------------|
------------------|------------------|------------------|------------------|
------------------|------------------|------------------|------------------|
------------------|------------------|------------------|------------------|
------------------|------------------|------------------|------------------|
------------------|------------------|------------------|------------------|



------------------|------------------|------------------|------------------|
------------------|------------------|------------------|------------------|
------------------|------------------|------------------|------------------|
------------------|------------------|------------------|------------------|
------------------|------------------|------------------|------------------|
------------------|------------------|------------------|------------------|



--4----------------|--4----------------|-------------------|-------------------|
--5----------------|--5----------------|--2----------------|--2----------------|
--6----------------|--6----------------|--2----------------|--2----------------|
--6----------------|--6----------------|--2----------------|--2----------------|
--4----------------|--4----------------|--0----------------|--0----------------|
-------------------|-------------------|-------------------|-------------------|



-------------------|-------------------|--4----------------|--4----------------|
--4----------------|--4----------------|--5----------------|--5----------------|
--4----------------|--4----------------|--6----------------|--6----------------|
--4----------------|--4----------------|--6----------------|--6----------------|
--2----------------|--2----------------|--4----------------|--4----------------|
-------------------|-------------------|-------------------|-------------------|



--4----------------|--4----------------|-------------------|-------------------|
--5----------------|--5----------------|--2----------------|--2----------------|
--6----------------|--6----------------|--2----------------|--2----------------|
--6----------------|--6----------------|--2----------------|--2----------------|
--4----------------|--4----------------|--0----------------|--0----------------|
-------------------|-------------------|-------------------|-------------------|



-------------------|-------------------|--4----------------|--4----------------|
--4----------------|--4----------------|--5----------------|--5----------------|
--4----------------|--4----------------|--6----------------|--6----------------|
--4----------------|--4----------------|--6----------------|--6----------------|
--2----------------|--2----------------|--4----------------|--4----------------|
-------------------|-------------------|-------------------|-------------------|



--4----------------|--4----------------|-------------------|-------------------|
--5----------------|--5----------------|--2----------------|--2----------------|
--6----------------|--6----------------|--2----------------|--2----------------|
--6----------------|--6----------------|--2----------------|--2----------------|
--4----------------|--4----------------|--0----------------|--0----------------|
-------------------|-------------------|-------------------|-------------------|



-------------------|-------------------|--4----------------|--4----------------|
--4----------------|--4----------------|--5----------------|--5----------------|
--4----------------|--4----------------|--6----------------|--6----------------|
--4----------------|--4----------------|--6----------------|--6----------------|
--2----------------|--2----------------|--4----------------|--4----------------|
-------------------|-------------------|-------------------|-------------------|



--4----------------|--4----------------|-------------------|-------------------|
--5----------------|--5----------------|--2----------------|--2----------------|
--6----------------|--6----------------|--2----------------|--2----------------|
--6----------------|--6----------------|--2----------------|--2----------------|
--4----------------|--4----------------|--0----------------|--0----------------|
-------------------|-------------------|-------------------|-------------------|



-------------------|-------------------|--4----------------|
--4----------------|--4----------------|--5----------------|
--4----------------|--4----------------|--6----------------|
--4----------------|--4----------------|--6----------------|
--2----------------|--2----------------|--4----------------|
-------------------|-------------------|-------------------|



--4--------------------------------|-------------------|-------------------|
--5--------------------------------|-------------------|-------------------|
--6--------------------------------|--7----------------|--3----------------|
--6--------------------------------|--7----------------|--3----------------|
--4--------------------------------|--5----------------|--1----------------|
-----------------------------------|-------------------|-------------------|



-------------------|-------------------|-------------------|-------------------|
-------------------|-------------------|-------------------|-------------------|
--5----------------|--3----------------|--7----------------|--3----------------|
--5----------------|--3----------------|--7----------------|--3----------------|
--3----------------|--1----------------|--5----------------|--1----------------|
-------------------|-------------------|-------------------|-------------------|



-------------------|-------------------|-------------------|-------------------|
-------------------|-------------------|-------------------|-------------------|
--5----------------|--3----------------|--9----------------|--5----------------|
--5----------------|--3----------------|--9----------------|--5----------------|
--3----------------|--1----------------|--7----------------|--3----------------|
-------------------|-------------------|-------------------|-------------------|



-------------------|-------------------|-------------------|-------------------|
-------------------|-------------------|-------------------|-------------------|
--7----------------|--4----------------|--9----------------|--5----------------|
--7----------------|--4----------------|--9----------------|--5----------------|
--5----------------|--2----------------|--7----------------|--3----------------|
-------------------|-------------------|-------------------|-------------------|



-------------------|-------------------|-------------------|-------------------|
-------------------|-------------------|-------------------|-------------------|
--7----------------|--4----------------|--7----------------|--3----------------|
--7----------------|--4----------------|--7----------------|--3----------------|
--5----------------|--2----------------|--5----------------|--1----------------|
-------------------|-------------------|-------------------|-------------------|



-------------------|-------------------|-------------------|-------------------|
-------------------|-------------------|-------------------|-------------------|
--5----------------|--2----------------|--7----------------|--3----------------|
--5----------------|--2----------------|--7----------------|--3----------------|
--3----------------|--0----------------|--5----------------|--1----------------|
-------------------|-------------------|-------------------|-------------------|



-------------------|-------------------|-------------------|-------------------|
-------------------|-------------------|-------------------|-------------------|
--5----------------|--2----------------|--7----------------|--3----------------|
--5----------------|--2----------------|--7----------------|--3----------------|
--3----------------|--0----------------|--5----------------|--1----------------|
-------------------|-------------------|-------------------|-------------------|



-------------------|-------------------|-------------------|-------------------|
-------------------|-------------------|-------------------|-------------------|
--5----------------|--3----------------|--7----------------|--3----------------|
--5----------------|--3----------------|--7----------------|--3----------------|
--3----------------|--1----------------|--5----------------|--1----------------|
-------------------|-------------------|-------------------|-------------------|



-------------------|-------------------|------------------------------|
-------------------|-------------------|------------------------------|
--5----------------|--3----------------|------------------------------|
--5----------------|--3----------------|--2--2-2-2--2-2-2--2-2-2--2-2-|
--3----------------|--1----------------|--0--0-0-0--0-0-0--0-0-0--0-0-|
-------------------|-------------------|------------------------------|



-----------------------------|------------------|------------------|
-----------------------------|------------------|------------------|
-----------------------------|------------------|------------------|
--2--2-2-2--2-2-2--2-2-2--5--|------------------|------------------|
--0--0-0-0--0-0-0--0-0-0--5--|------------------|------------------|
--------------------------3--|------------------|------------------|



------------------------------|----------------------------|------------------|
------------------------------|----------------------------|------------------|
------------------------7--5--|----------------------------|------------------|
----------7--5----------------|----------7--5-----8--7--5--|------------------|
--7-7-7-7-------7-7-7-7-------|--7-7-7-7-------7--------5--|------------------|
--5-5-5-5-------5-5-5-5-------|--5-5-5-5-------5--------3--|------------------|



------------------|------------------------------|---------------------------|
------------------|------------------------------|---------------------------|
------------------|------------------------7--5--|---------------------------|
------------------|----------7--5----------------|----------7--5-----8--7----|
------------------|--7-7-7-7-------7-7-7-7-------|--7-7-7-7-------7----------|
------------------|--5-5-5-5-------5-5-5-5-------|--5-5-5-5-------5----------|



-------------------|--------------------------|-------------------|
-------------------|--------------------------|-------------------|
-------------------|--6--0--9--0--6--0--9--0--|-------------------|
--4----------------|--------------------------|--5----------------|
--4----------------|--------------------------|--5----------------|
--2----------------|--------------------------|--3----------------|



--------------------------|-------------------|--------------------------|
--------------------------|-------------------|--------------------------|
--7--0--9--0--7--0--7--0--|-------------------|--6--0--9--0--6--0--9--0--|
--------------------------|--4----------------|--------------------------|
--------------------------|--4----------------|--------------------------|
--------------------------|--2----------------|--------------------------|



--------------------------|-------------------||-------------------------------|
--------------------------|-------------------||-------------------------------|
--6--0--9--0--6--0--9--0--|-------------------||*--2------3------2-------------|
--------------------------|--7----------------||*----3-0----5-0----3-0--0------|
--------------------------|--7----------------||---------------------------5-5-|
--------------------------|--5----------------||-------------------------------|



-------------------------------|------------------------------|
-------------------------------|------------------------------|
-------------------------------|--2------3------2-------------|
------2-3-2--------------------|----3-0----5-0----3-0--0------|
--3-5--------5-3-5--5-5-5--5-5-|--------------------------5-5-|
-------------------------------|------------------------------|



-------------------------------|------------------------------|
-------------------------------|------------------------------|
-------------------------------|--2------3------2-------------|
------2-3-2--------------------|----3-0----5-0----3-0--0------|
--3-5--------5-3-0--0-0-0--0-0-|--------------------------5-5-|
-------------------------------|------------------------------|



-------------------------------|------------------------------|
-------------------------------|------------------------------|
-------------------------------|--2------3------2-------------|
------2-3-2--------------------|----3-0----5-0----3-0--0------|
--3-5--------5-3-5--5-5-5--5-5-|--------------------------5-5-|
-------------------------------|------------------------------|



---------------------------------||-----------------|
---------------------------------||-----------------|
--------------------------------*||-----------------|
------2-3-2---------------------*||------2-3-2------|
--3-5--------5-3-0--0-0-0-0-0-0--||--3-5--------5-3-|
---------------------------------||-----------------|



------------------------------|-----------------------------|------------------|
------------------------------|-----------------------------|------------------|
------------------------------|-----------------------------|------------------|
--2--2-2-2--2-2-2--2-2-2--2-2-|--2--2-2-2--2-2-2--2-2-2--2--|------------------|
--0--0-0-0--0-0-0--0-0-0--0-0-|--0--0-0-0--0-0-0--0-0-0--0--|------------------|
------------------------------|-----------------------------|------------------|

  Visit MetalTabs.com for more metal tablature

bottom separator

Contact Us | Privacy Policy | Disclaimer | Legal Notice
Copyright © 2001-2014 MetalTabs.com. All Rights Reserved.