top separator

Home

Forum

What's New

Submit a Tab

FAQ

Links

Contact Us

Link to Us

MuSpy.com

MetalTabs.com logo

Bands

0-9

A

B

C

D

E

F

G

H

I

J

K

L

M

N

O

P

Q

R

S

T

U

V

W

X

Y

Z

Search

What

Where
 

My Dying Bride - "For My Fallen Angel" Guitar Tab

Plain Text Version
More My Dying Bride Tabs

Hits: 8838
Rated: 3.33 out of 5 (6 votes)
Updated: 2004-11-02 05:56:03

 

By:

sendpm.gif

email.gif

Important note
This tab is available online because we obtained explicit permission from My Dying Bride or their label.


#----------------------------------PLEASE NOTE---------------------------------#
#This file is the author's own work and represents their interpretation of the #
#song. You may only use this file for private study, scholarship, or research. #
#Unless specified otherwise, this is NOT an official tab from the band members.#
#------------------------------------------------------------------------------#

  Visit MetalTabs.com for more metal tablature
  
Band:  My Dying Bride
Album: Like Gods Of The Sun
Song:  For My Fallen Angel

1996 CD Peaceville/MFN CDVILE 65

Transcribed By: Darrell Sturby
Email:          trex@spl.at

Standard Tuning:
E A D G B E

Well... I'm sure you all know this song has no guitar in it, but since the
violin part is so beautiful I decided I'd transcribe it for guitar.
Some types of effects you can use are slow attack, echo, and slight
distortion... perhaps tremelo as well.
This is only a guide to the notes, I use alot of slides, hammer on's,
and vibrato that I don't really feel like typing out.

The entire melody can be played using only the second string, since there
really is no need to use any others and it gives alot of oppurtunities to
use slides.

0:13 -> 0:52

e|-------------------------------------------|
B|-14----14-16---12---12-9--10--10-12--5-----|
G|-------------------------------------------|

e|-------------------------------------------|
B|-14----14-16---12---12-9--10--10-12--12----|
G|-------------------------------------------|

e|-------------------------------------------|
B|-14----14-16---12---12-9--10--17--17-19-17-|
G|-------------------------------------------|

1:09 -> 2:03

e|-------------------------------------|
B|-9---12-5-9---12-5-7-----2-5----4----|
G|-------------------------------------|

e|-------------------------------------|
B|-9---12-5-9---12-5-7-----2-5----4----|
G|-------------------------------------|

e|-------------------------------------|
B|-9---12-5-9---12-5-14--14-16-17--16--|
G|-------------------------------------|

e|-------------------------------------|
B|-14--14-5-9---12-5-7-----2-5----4--2-|
G|-------------------------------------|

2:48 -> 3:25

e|--------------------------------------|
B|-17--17-19-17h19p17-16-12-16----16-17-|
G|--------------------------------------|

e|--------------------------------------|
B|-14---14-16-17--14-14------12-12------|
G|--------------------------------------|

e|--------------------------------------|
B|-17--17-19-17h19p17-16-17--21---------|
G|--------------------------------------|

e|--------------------------------------|
B|-19-19-------17----17-19-17-----------|
G|--------------------------------------|

e|--------------------------------------|
B|-17--17-19-17h19p17-16-12-16----16-17-|
G|--------------------------------------|

e|--------------------------------------|
B|-14---14-16-17----19-17---------------|
G|--------------------------------------|

3:44 -> 4:39

e|-------------------------------------|
B|-9---12-5-9---12-5-7-----2-5----4----|
G|-------------------------------------|

e|-------------------------------------|
B|-9---12-5-9---12-5-7-----2-5----4----|
G|-------------------------------------|

e|-------------------------------------|
B|-9---12-5-9---12-5-14--14-16-17--16--|
G|-------------------------------------|

e|-------------------------------------|
B|-14--14-5-9---12-5-7-----2-5----4----|
G|-------------------------------------|

  Visit MetalTabs.com for more metal tablature

bottom separator

Contact Us | Privacy Policy | Disclaimer | Legal Notice
Copyright © 2001-2014 MetalTabs.com. All Rights Reserved.